Oops, an error
Loading. Please wait.

Malagueña Chords

218 views 1 this week
no commentswrite comment
1 2 3 4 5
3 more votes to show rating
add to favorites
launch autoscroll
font size
0
reset
transpose
0
reset
display chords
guitar tuner
Autoscroll
slow
fast
+/-
esc
set tempo
stop
Help us to improve Ultimate-Guitar.com Take our survey!
×
Esta canción es muy bella dedicada a todas las mujeres del mundo disfrútenla.


Las notas del estribillo son:

D7     Gm   F    Bb   G7    Cm  SOLm   D7   SOLm R   SOL7  R    Cm
Gm   D7     Gm R

le acompaña al requinto así.
E------------------------------------------------------------------------
B--3---------------------------------------------------------------------
G-----5--3--2------------------------------------------------------------
D--------------5--4--5--4-----5--4---------------------------------------
A--------------------------3--------6--6--6--6--5--5--5--5--3--3--3--3---
E-----------------------------------------------------------------------6


Gm            D7    Gm
Que bonitos ojos tienes,
                                Cm
Debajo de esas dos cejas,
    F                     Bb 
Debajo de esas dos cejas,
    D#+RR  A+RR D7 
Que bonitos ojos tienes,
Gm            D7    Gm
Ellos me quieren mirar,
                            Cm
Pero si tu no los dejas,
  F                     Bb 
Pero si tu no los dejas,
  D#+RR  A+RR D7 
Ni siquiera parpadear,
                        Gm
Malagueña salerosa,
                              F 
Besar tus labios quisiera,
                              Bb 
Besar tus labios quisiera,
        D#        D7 
Malagueña salerosa,
                            Gm
Y decirte niña hermosa,
                          F 
Eres linda y hechicera,
                          Bb 
Eres linda y hechicera,
 D#                          D7 
Como el candor de una rosa,
                                     Gm
Como el candor de una rosa,


Segundo estribillo

D7     Gm   F    Bb   Cm  Gm   D7   SOLm   RE7   SOLm
D7   Gm   Cm  Gm   D7   SOLm R   SOL7  R    Cm
Gm   D7     Gm R

le acompaña al requinto así.
E------------------------------------------------------------------------
B--3---------------------------------------------------------------------
G-----5--3--2------------------------------------------------------------
D--------------5--4--5--4-----5--4---------------------------------------
A--------------------------3--------6--6--6--6--5--5--5--5--3--3--3--3---
E-----------------------------------------------------------------------6

Gm       D7          Gm
Si por pobre me desprecias,
                       Cm
Te concedo razón,
F               Bb 
Te concedo razón,
    D#+RR  A+RR D7 
Si por pobre me desprecias,
  Gm       D7        Gm
No no te ofrezco riqueza,
                              Cm
Te ofrezco mi corazón,
     F                Bb 
Te ofrezco mi corazón,
    D#+RR  A+RR D7 
Acambio de mis pobrezas,
                        Gm
Malagueña salerosa,
                              F 
Besar tus labios quisiera,
                              Bb 
Besar tus labios quisiera,
        D#        D7 
Malagueña salerosa,
                            Gm
Y decirte niña hermosa,
                          F 
Eres linda y hechicera,
                          Bb 
Eres linda y hechicera,
 D#+RR     A+RR   D7 
Como el candor de una rosa,
                         F+R  Bb  D7  Gm
Como el candor de una rosa,


Cualquier duda o petición de alguna canción escríbanme a willicar696@
Suggest correction
Give kudos to tab author, rate the tab!
1 2 3 4 5
comments
print report bad tab
guest
You may want to rate the tab now too:
select rating
Wanna post a correction for this tab? Suggest correction