Oops, an error
Loading. Please wait.

Muchachita Mía Tab

13 views 1 this week
no commentswrite comment
1 2 3 4 5
3 more votes to show rating
add to favorites
launch autoscroll
font size
0
reset
how to read this tab
guitar tuner
Autoscroll
slow
fast
+/-
esc
set tempo
stop
Help us to improve Ultimate-Guitar.com Take our survey!
×
Afinación :Requinto con capo en el terce traste  C F A# D# G C 	

|----------|--5h3---5-3h5p3---5-3h5p|3-0---0-----------|--------5h3---3---2-2-2-|
|3h5-3h5-5-|5-5---5-5-5---5-5-5-5---|5-1-3-1-3-1---3h5-|3h5-5-5-5---5-5---3-3-3-|
|5---5---5-|5-----5---------5-------|----4---4-2-5-----|5---5-5-----5-----------|
|----------|------------------------|------------------|----------------4-------|
|----------|------------------------|------------------|------------------------|
|----------|------------------------|------------------|------------------------|
                                                                               


|--2-2-2---2-2-2---4-4-4---4-4-4---4-4-4---|----5-8-7-108-7-0---1-0---0-5-4h|
|--3-3-3---3-3-3---5-5-5---5-5-5---5-5-5---|--6---------------3-----1-------|
|------------------------------------------|7-------------------------------|
|4-------4-------6-------6-------6-------7-|--------------------------------|
|------------------------------------------|--------------------------------|
|------------------------------------------|--------------------------------|
                                 

 
|5p4-0-------------0---0-|----8-7-108-7-0---|1-0---0-5-4h5p4-0-------------0-0-|
|------1-----------1-3-1-|3-1-------------3-|----1-------------1---------------|
|--------2-0h2p0-----4---|4-2---------------|--------------------2-0h2p0-------|
|----------------2-------|------------------|----------------------------2-----|
|------------------------|------------------|----------------------------------|
|------------------------|------------------|------------------------------0-0-|
         


|2-2-4-4-5-5/8-7-6-|5---|
|------------------|----|
|------------------|----|
|------------------|----|
|------------------|----|
|2-2-4-4-5-5/8-7-6-|5---|

Que se diviertan :) dudas y comentarios los contestare con mucho gusto.
Tengo mas requintos pero en tabledit. para que lo escuchen en midi..
ó visintenme a 
Suggest correction
Give kudos to tab author, rate the tab!
1 2 3 4 5
comments
print report bad tab
guest
You may want to rate the tab now too:
select rating
Wanna post a correction for this tab? Suggest correction