Oops, an error
Loading. Please wait.

No Me Queda Más Tab

58 views 6 this week
no commentswrite comment
1 2 3 4 5
3 more votes to show rating
add to favorites
launch autoscroll
font size
0
reset
how to read this tab
guitar tuner
×
Best way to learn
"No Me Queda Más"
Autoscroll
slow
fast
+/-
esc
set tempo
stop
Este es el requinto de la cancion "No me queda mas"
que cantan Los Tres Reyes en el montaje con la voz 
de Selena .este es el requinto de la introduccion.
El de en medio es lo mismo solo que comienza de la 
mitad

  

__
  \                                       
   1|-------3-2-5-3-2---2------2-2----------
 ) 2|-----------------5---------------------
   3|-----2---------------2-2---------------
   4|---------------------------------------
 ) 5|---------------------------------------
   6|---------------------------------------
__/


__      
  \                                       
   1|-------3-2-5-3-5-3-2---2------2-2------
 ) 2|---------------------5-----------------
   3|-----2-------------------3-3-----------
   4|---------------------------------------
 ) 5|---------------------------------------
   6|---------------------------------------
__/


__      
  \                                       
   1|-------3-2-5-3-2---2------2-2----------
 ) 2|-----------------5---------------------
   3|-----3----------------4-4--------------
   4|---------------------------------------
 ) 5|---------------------------------------
   6|---------------------------------------
__/
    

__      
  \                                       
   1|-------3-2-5-3-5-3-5-3-2----2--2-2-----
 ) 2|--------------------------5------------
   3|-----4------------------------5-5------
   4|---------------------------------------
 ) 5|---------------------------------------
   6|---------------------------------------
__/

  DE AQUI EMPIEZA EL REQUINTO DE EN MEDIO DE LA CANCION.
                       
 
   1|--------8-7-10-8-7-----7-------7-7-----
 ) 2|--------------------10-----------------
   3|-----7--------------------7-7----------
   4|---------------------------------------
 ) 5|---------------------------------------
   6|---------------------------------------
__/


                        
   1|--------8-7-10-8-10-8-7-----7------7-7-
 ) 2|-------------------------10------------
   3|-----7-------------------------8-8-----
   4|---------------------------------------
 ) 5|---------------------------------------
   6|---------------------------------------
__/


   1|--------8-7-10-8-7-----7-------7-7-----
 ) 2|--------------------10-----------------
   3|-----8--------------------9-9----------
   4|---------------------------------------
 ) 5|---------------------------------------
   6|---------------------------------------
__/


   1|-----8-7-10-8-10-8-10-8-7-----7------7-7-
 ) 2|-------------------------10--------------
   3|---9----------------------------10-10----
   4|-----------------------------------------
 ) 5|-----------------------------------------
   6|-----------------------------------------
__/
   


  \                                       
   1|------------7-8-9-10-12-10-10-8-8-7-7----
 ) 2|-----7-8-10------------------------------
   3|---9-------------------------------------
   4|-----------------------------------------
 ) 5|-----------------------------------------
   6|-----------------------------------------
__/


  \                                       
   1|-----------------------------------------
 ) 2|---10-10-8-8-7-7-------------------------
   3|-----------------9-9-7-7--7-9-7----------
   4|-----------------------------------------
 ) 5|-----------------------------------------
   6|-----------------------------------------
__/


 
 Alguna duda o sujerencia, intercambios requintos de los tres Reyes
 no duden en mandarme un e-mail.
 Gerardo Lee Calera Reynosa tamps. ( re5to@
Suggest correction
Give kudos to tab author, rate the tab!
1 2 3 4 5
comments
print report bad tab
guest
You may want to rate the tab now too:
select rating
Wanna post a correction for this tab? Suggest correction