Oops, an error
Loading. Please wait.

Novia Mía Tab

196 views 1 this week
no commentswrite comment
1 2 3 4 5
3 more votes to show rating
add to favorites
launch autoscroll
font size
0
reset
how to read this tab
guitar tuner
×
Best way to learn
"Novia Mía"
Autoscroll
slow
fast
+/-
esc
set tempo
stop
Afinacion: Requinto en el segundo traste B E A D F# B 


|5-4-5h0-------0-5-7-8-7-|108-7---7-------------------0---7-|
|--------1---1-----------|------10--108-7-8h0-----0-----0---|
|----------2-------------|--------------------0-----0-------|
|------------------------|----------------------0-----------|
|------------------------|----------------------------------|
|------------------------|----------------------------------|

|5-8-7-5---5-------------------0---|5-4-7-5-4---4-----------------|
|--------8---8-6-5-6h0-----0-----0-|----------6---6-5-4-5---------|
|----------------------2-----2-----|----------------------4-3-2-1-|
|------------------------3---------|------------------------------|
|----------------------------------|------------------------------|
|----------------------------------|------------------------------|

|------------------------------|----0-4-5-4-5-4-5-4-5-7-8h0-----|
|----------------------------1-|0-1-------------------------1---|
|--1-------------------2-1-2---|------------------------------2-|
|3---3-2-1-2-0-2-3-2-3---------|--------------------------------|
|------------------------------|--------------------------------|
|------------------------------|--------------------------------|

|--0-8-7-8-7-8-7-8-9-108-108-|7---7-----0---0-10--10--7---7-|
|1---------------------------|--10--109---4-----9---9---10--|
|----------------------------|------------------------------|
|----------------------------|------------------------------|
|----------------------------|------------------------------|
|----------------------------|------------------------------|

|--8---8---5---5---6---6---3-|--3---5-4-2-4-5---||
|10--7---7---8---8---5---5---|6---6-------------||
|----------------------------|----------------2-||
|----------------------------|------------------||
|----------------------------|------------------||
|----------------------------|------------------||


Dudas y comentarios: los contestare con mucho Gusto..
o visitar mi web  
Suggest correction
Give kudos to tab author, rate the tab!
1 2 3 4 5
comments
print report bad tab
guest
You may want to rate the tab now too:
select rating
Wanna post a correction for this tab? Suggest correction