Oops, an error
Loading. Please wait.

Triángulo Tab

version 3
version 3

Whole song

82 views 1 this week
no commentswrite comment
1 2 3 4 5
3 more votes to show rating
add to favorites
launch autoscroll
font size
0
reset
how to read this tab
guitar tuner
Autoscroll
slow
fast
+/-
esc
set tempo
stop
Help us to improve Ultimate-Guitar.com Take our survey!
×
Esta es la introducción lo toca el requinto con capo en primer traste o con guitarra en sexto traste
pues la canción esta en Re#. Casi toda la cancion se toca arpegiando solo en una parte cambia el ritmo.

A# --------0------------0---------------0-------------0-------0---------------------
F  ------2---2--------2----2----------2---2---------2----2--3-----------------------
C# ----2-------2----2--------2------2-------2-----2---------------------------------
G# ---------------------------------------------------------------------------------
D# --0------------0---------------0-------------0-----------------------------------
A# ---------------------------------------------------------------------------------


A# --5--7--9----7--9--10----9--10--12-----9----9-------------2---2------------------
F  -----------------------------------------12---12--11--------5---5--4-------------
C# ---------------------------------------------------------------------------------
G# ---------------------------------------------------------------------------------
D# ---------------------------------------------------------------------------------
A# ---------------------------------------------------------------------------------


A# --7----7--------------------------------5---5------------------------------------
F  ----10---10--9-----------5---5------------8---8--7-----3---3---------------------
C# ----------------7--7--7----7----7--6---------------------6---6--5----------------
G# ---------------------------------------------------------------------------------
D# ---------------------------------------------------------------------------------
A# ---------------------------------------------------------------------------------


A# --4---4---------------0-----------9--10--11--12--10-------0----------------------
F  ----7---7--5--4--5--7---9--10--12-------------------12--9---3--0-----------------
C# ---------------------------------------------------------------------------------
G# ---------------------------------------------------------------------------------
D# ---------------------------------------------------------------------------------
A# ---------------------------------------------------------------------------------

Bueno estos son algunos acompañamientos de la canción.


sabiéndola un imposible

A# -------4-4-----4--------2-2------2------0-0------0--------------------------------
F  -----5-------5--------3--------3------2--------2-----0----------------------------
C# ---4-------4--------2--------2------1--------1------------------------------------
G# ----------------------------------------------------------------------------------
D# ----------------------------------------------------------------------------------
A# ----------------------------------------------------------------------------------


en un triangulo.................triangulo.................triangulo.......
A# ----------------5/9--7--5---------------2/5--3--2----------------2--2--2--0--2--0--
F  -----------------------------------------------------------------------------------
C# -----------------------------------------------------------------------------------
G# -----------------------------------------------------------------------------------
D# -----------------------------------------------------------------------------------
A# ----------------5/9--7--5---------------2/5--3--2----------------2--2--2--0--2--0--

Este es el intermedio de la canción, pueden tocarlo como tremolo o de forma punteada con los dedo índice
y medio de tu mano derecha, como te acomodes mejor, de cualquier forma se oirá bien, pero estos son los
trastes correctos donde debes pisar:

A# --9--7-7--5-5--2--5--7--9--7-7--5-5--2--5--7--9--7-----7--9--7---------------------
F  -----------------------------------------------------------------------------------
C# -----------------------------------------------------------------------------------
G# -----------------------------------------------------------------------------------
D# -----------------------------------------------------------------------------------
A# -----------------------------------------------------------------------------------

A# --9--7-7--5-5--2--5--7--9--7-7--5-5--2--5--7--9--7-----7--9--7-7-7-7-7-7/0---------
F  -----------------------------------------------------------------------------------
C# -----------------------------------------------------------------------------------
G# -----------------------------------------------------------------------------------
D# -----------------------------------------------------------------------------------
A# -----------------------------------------------------------------------------------

Bueno el requinto que puse es el se que tocaría de forma punteada, si tienes la versión original de esta
canción con los tres reyes notaras que lo toca de forma punteada pero lo hace muy rápido, por eso es que se
oye como tremolo y ligeramente mientras pisa el séptimo traste, toca al mismo tiempo la 2° cuerda al aire.

Esta cancion se la dedico a la persona que amo en mi vida pues mi corazón se siente como en un trangulo.
Suggest correction
Give kudos to tab author, rate the tab!
1 2 3 4 5
comments
print report bad tab
guest
You may want to rate the tab now too:
select rating
Wanna post a correction for this tab? Suggest correction