Oops, an error
Loading. Please wait.

Pobre Soñador Tab

version 3
version 3

Whole song

127 views 3 this week
no commentswrite comment
1 2 3 4 5
2 more votes to show rating
add to favorites
launch autoscroll
font size
0
reset
how to read this tab
guitar tuner
Autoscroll
slow
fast
+/-
esc
set tempo
stop
Help us to improve Ultimate-Guitar.com Take our survey!
×
QUE ONDA RAZA.....


Aqui les mando esta tablatura del EL TRI espero les sirva de algo

es una canción que en lo particular me gusta......


DISFRUTENLA


Intro.

C G              Em           C     D
No siempre las cosas son como debieran ser
         C G           Em       C  D
No siempre se puede tener la razon
       C G      Em          C           D
Tu me haces sentir como en un juego de Beisbol
       C G      Em          C   D
Me ponchas o me haces batear de jonron   mmhm


CORO

C
Tu eres como un sueño
                  G
y yo tan solo soy un pobre soñador
C
Tu eres como un sueño
                        D
y de ese sueño nunca quiero despertar por eso


VERSO


    C G                Em          C          D
Nunca los ojos quisiera volver a abrir
      C G          Em     C D
soñando asi es como quiero vivir
       C G          Em              D
viajando, viajando  en la noche en la obscuridad
      C G          Em      C   D
tu eres mi escape de la realidad    ahaa


CORO

C
Tu eres como un sueño
                  G
y yo tan solo soy un pobre soñador
C
Tu eres como un sueño
                        D
y de ese sueño nunca quiero despertar no quiero...


Aqui entra el solo del sax.


se lo mando aqui es algo parecido al lo del que hace el saxofon.....

e|------------------------------------------------------|
B|--13-12----12-13-15-15-13-12-12--10-------------------|
G|------------------------------------------------------|
D|------------------------------------------------------|
A|------------------------------------------------------|
E|------------------------------------------------------|


e|--------------------------------------17--------------|
B|--13-12----12-13-15-15-13-12-12--10-------------------|
G|------------------------------------------------------|
D|------------------------------------------------------|
A|------------------------------------------------------|
E|------------------------------------------------------|


(2°Parte)


e|-----------14--12-------------------------12----------|
B|--15~~~~~-----------15-13-12-13-12-15-15------15------|
G|------------------------------------------------------|
D|------------------------------------------------------|
A|------------------------------------------------------|
E|------------------------------------------------------|

e|------------------------------------------------------|
B|--12--13--15--13--12--12--10--------------------------|
G|------------------------------------------------------|
D|------------------------------------------------------|
A|------------------------------------------------------|
E|------------------------------------------------------|(se repites esta parte dos veces)


Aqui nuevamente regresa al pimer solo


e|------------------------------------------------------|
B|--13-12----12-13-15-15-13-12-12--10-------------------|
G|------------------------------------------------------|
D|------------------------------------------------------|
A|------------------------------------------------------|
E|------------------------------------------------------|


e|--------------------------------------17--------------|
B|--13-12----12-13-15-15-13-12-12--10-------------------|
G|------------------------------------------------------|
D|------------------------------------------------------|
A|------------------------------------------------------|
E|------------------------------------------------------|


En esta parte se repiten nuevamente los acordes de la cacnión...

C
Tu eres como un sueño ........


Nunca, Ya nuca quero dejar de soñar........


Contigo....

Nunca a a a a a a a a a a


Esta parte la hace la guitarra al final....


e|--8--7----7--8--10--10--8--7-------------5------------|
B|------------------------------------------------------|
G|--------------------------------------7-----7---------|
D|--6--5----5--6--8---8---6--5------7------------7------|
A|-------------------------------5----------------------|
E|------------------------------------------------------|


e|--------------5------------|
B|---------------------------|
G|-----------7-----7---------|
D|-------7------------7------|
A|----5----------------------|
E|---------------------------|(bis)


Bueno espero les guste la canción cualquier duda o comentario sobre la canción

escribanme a kbrownzito@

Nos vemos luego.......

Hacemos más... Izucar de Matamoros, Puebla
Suggest correction
Give kudos to tab author, rate the tab!
1 2 3 4 5
comments
print report bad tab
guest
You may want to rate the tab now too:
select rating
Wanna post a correction for this tab? Suggest correction