Oops, an error
Loading. Please wait.

Triste Canción Tab

version 2
version 2

Whole song

Interactive

294 views 1 this week
no commentswrite comment
1 2 3 4 5
3 more votes to show rating
add to favorites
launch autoscroll
font size
0
reset
how to read this tab
guitar tuner
Autoscroll
slow
fast
+/-
esc
set tempo
stop
Help us to improve Ultimate-Guitar.com Take our survey!
×
Hola nuevamente:

Ésta rola de (Alex Lora) va dedicada a toda la gente
que directa o indirectamente me animan para hacer esto.
Sé que he estado un poco desconectado del ATAME y a quienes
me escriben en cada actualización diciendo que extrañan mis
garabatos, aquí les dejo una de mis favoritas de LORA.


ACORDES:   

CUERDAS   :654321
NOTAS     :EADGBe

Dm        -x00231-
C         -032010-
Am        -002210-
A#        -113331-
A7        -002020-


|------|
|NOTA: |
|---------------------------------------------------------------------------------------------------------------------------|
|h: es 'hammer-on' y significa literalmente martilleo. La nota que esta antes de la h la tocas poniendo el dedo en el       |
|traste que dice el número antes de la h y la haces vibrar. Luego pones OTRO dedo en la nota del número después de          |
|la h pero NO vuelves a hacer vibrar la cuerda. Entonces como usaste una misma vibración para las dos notas, se             |
|hace un efecto de ligado que se usa mucho en trova.                                                                        |
|---------------------------------------------------------------------------------------------------------------------------|
|p: es 'pull-off' y significa literalmente jalar. Es exactamente lo mismo que la h pero al revés. Puedes notar que el       |
|efecto de ligado de la h siempre va de un numero menor a uno mayor. Pues la p es al revés, va de uno mayor a uno           |
|menor porque cuando haces vibrar la cuerda de la nota del número antes de la p, pones OTRO dedo en la nota del             |
|número depués de la p (si el número es 0 no pones ningun dedo pues es nota abierta) y luego sueltas el primer dedo         |
|pero sin hacer vibrar la cuerda de nuevo. El efecto de ligado es ahora a la inversa.                                       |
|---------------------------------------------------------------------------------------------------------------------------|
|/ : esto sicnifica deslisar o arrastrar a esto se le llama 'SLIDE'                                                         |
|---------------------------------------------------------------------------------------------------------------------------|
|b : para realizar este efecto se estira la cuerda hacia nosotros para lograr subir el tono de la nota a esto se le llama   |
|'BEND'                                                                                                                     |
|---------------------------------------------------------------------------------------------------------------------------|

intro:

1|------------|--------------------|-------------------------------|e
2|-10---------|-------------10-----|-------------------------------|B
3|---------10-|---------10------12-|-9h10p9------------------------|G
4|-----12-----|-10--12-------------|---------10h12p10--9h10p9------|D
5|------------|--------------------|---------------------------10--|A
6|------------|--------------------|-------------------------------|E

1|------------------------|-12b---------|-----------------------|e
2|-10---------------------|------12/13b-|-10--------------------|B
3|---------10-------------|-------------|---------10------------|G
4|-----12------12--10--12-|-------------|-----12------12--10h12-|D
5|------------------------|-------------|-----------------------|A
6|------------------------|-------------|-----------------------|E

1|----------------|---------12--15--12-|-----------------|e
2|-------------10-|-----13-------------|-13--11b--10b-/--|B
3|---------10-----|-12-----------------|-----------------|G
4|-10--12---------|--------------------|-----------------|D
5|----------------|--------------------|-----------------|A
6|----------------|--------------------|-----------------|E

1|-------15-13-|--------15-13-|--------15-13-|--------15-13-|-----------|-|-------------------------------------|e
2|15p13--------|-15p13--------|-15p13--------|-15p13--------|-15p13--15-|-|-15--13------------------------------|B
3|-------------|--------------|--------------|--------------|-----------|-|--------14--12--14--12---------------|G
4|-------------|--------------|--------------|--------------|-----------|-|------------------------15--14--12/--|D
5|-------------|--------------|--------------|--------------|-----------|-|-------------------------------------|A
6|-------------|--------------|--------------|--------------|-----------|-|-------------------------------------|E


verso:

      Dm                 C
Ella existiò, sòlo en un sueño,
       Dm                        Am     C      
El es un poema que el poeta nunca escribio
         Dm
y en la inmensidad los dos
               C
unieron sus almas para darle vida
  A#           A7               Dm      
a esta triste cancion de amor,
  A#           A7               Dm      
a esta triste cancion de amor.


        Dm                      C
El es como el mar, ella como la Luna
         Dm                            Am   C
y en las noches de Luna llena, hacen el amor
         Dm
y en la inmensidad los dos
             C
unieron sus almas para darle vida
  A#           A7               Dm      
a esta triste cancion de amor,
  A#           A7               Dm      
a esta triste cancion de amor.


solo:


1|------------|--------------------|-------------------------------|e
2|-10---------|-------------10-----|-------------------------------|B
3|---------10-|---------10------12-|-9h10p9------------------------|G
4|-----12-----|-10--12-------------|---------10h12p10--9h10p9------|D
5|------------|--------------------|---------------------------10--|A
6|------------|--------------------|-------------------------------|E

1|------------------------|-12b---------|-----------------------------------------------|e
2|-10---------------------|------12/13b-|-----------------------------------------------|B
3|---------10-------------|-------------|-12/14--12/14--14--12/14--12/14--14--12/15--14-|G
4|-----12------12--10--12-|-------------|-----------------------------------------------|D
5|------------------------|-------------|-----------------------------------------------|A
6|------------------------|-------------|-----------------------------------------------|E

1|------------------------|e
2|-13--15p13----------13--|B
3|------------14--12------|G
4|------------------------|D
5|------------------------|A
6|------------------------|E

1|-13/15--13-10-13-10-13-10-------------------------------------------------|e
2|---------------------------13-10-13-10------------------------------------|B
3|----------------------------------------12-10-12-10-----------------------|G
4|-----------------------------------------------------12-10-12-10----------|D
5|------------------------------------------------------------------12-10-8-|A
6|--------------------------------------------------------------------------|E
-
1|-13-10-----10--10-----------------------|e
2|--------13---------13-10------10--------|B
3|--------------------------12------12-10-|G
4|----------------------------------------|D
5|----------------------------------------|A
6|----------------------------------------|E

1|---------------------------------------------------------------10-13-10-13-10-15-|e
2|--------------------------------------------------10-13-10-13--------------------|B
3|-------------------------------------10-12-10-12---------------------------------|G
4|------------------------10-12-10-12----------------------------------------------|D
5|-----------10-12-10-12-----------------------------------------------------------|A
6|-13-10-13------------------------------------------------------------------------|E

1|--------15---------15---------15---------15--------|e
2|-15/13------15/13------15/13------15/13------13/15-|B
3|---------------------------------------------------|G
4|---------------------------------------------------|D
5|---------------------------------------------------|A
6|---------------------------------------------------|E

1|----------------------|
2|-10------13P12--------|
3|-----12---------12-10-|
4|----------------------|...ETC.
5|----------------------|
6|----------------------|


       Dm                         C      
El es como un dios, ella es como una virgen
       Dm                    Am    C
y los dioses les enseñaron a pecar
       Dm
y en la eternidad los dos
             C
unieron sus almas para darle vida
  A#           A7               Dm      
a esta triste cancion de amor,
  A#           A7               Dm      
a esta triste cancion de amor.


|-----------|
|COMENTARIO:|
|---------------------------------------------------------------------------------------------------------------------------|
|Sinceramente, creo que este TAB es lo más cercano a la canción ORIGINAL (no la canción en vivo),                           |
|pero creo que ya ni el mismo LORA la toca así pues le va poniendo y quitando arreglos mas que nada esta es mi              |
|interpretacion y no se escucha tan mal y vale la pena sacarla en guitarra,                                                 |
|creo que será de utilidad para que muchas personas, puedan practicar y aprender guitarra , o refinar sus errores           |
|(o los míos) a los que ya la aprendieron.                                                                                  |
|---------------------------------------------------------------------------------------------------------------------------|
|Por favor nadie dude en escribirme si tiene alguna duda, queja, comentario o sugerencia.                                   |
|---------------------------------------------------------------------------------------------------------------------------|
|Si les gusto mi interpretacion y mi trabajo, y quieren otro TAB como este de otra cancion, mandame una peticion a mi mail  |
|y con mucho gusto la cargo en el ATAME.                                                                                    |
|---------------------------------------------------------------------------------------------------------------------------|

DiSfUtEnLa:                         -/-/-/-/-/-/ viva el rock nacional /-/-/-/-/-/-
Suggest correction
Give kudos to tab author, rate the tab!
1 2 3 4 5
comments
print report bad tab
guest
You may want to rate the tab now too:
select rating
Wanna post a correction for this tab? Suggest correction