Oops, an error
Loading. Please wait.

Triste Canción Tab

version 3
version 3

Whole song

Interactive

219 views 1 this week
no commentswrite comment
1 2 3 4 5
3 more votes to show rating
add to favorites
launch autoscroll
font size
0
reset
how to read this tab
guitar tuner
backing track
0:00
0:00
×
Best way to learn
"Triste Canción"
Autoscroll
slow
fast
+/-
esc
set tempo
stop
Hola de nuevo ps esta es mi versión de esta buena rola se q llega un poquito tarde pero recién
comienzo a tocar guitarra ps y bueno le mando un saludo lady y a mis amigas del beata,
entre ellas Jazmín y Noelia q se supone ahora están en 4°A y q de ahí seguirá 5° ggggg
creo q esta es la versión más completa ya q lo e completado con las demás gggg

intro:

E|------------|--------------------|-------------------------------|
B|-10---------|-------------10-----|-------------------------------|
G|---------10-|---------10------12-|-9h10p9------------------------|
D|-----12-----|-10--12-------------|---------10h12p10--9h10p9------|
A|------------|--------------------|---------------------------10--|
E|------------|--------------------|-------------------------------|

E|------------------------|-12b---------|-----------------------|
B|-10---------------------|------12/13b-|-10--------------------|
G|---------10-------------|-------------|---------10------------|
D|-----12------12--10--12-|-------------|-----12------12--10h12-|
A|------------------------|-------------|-----------------------|
E|------------------------|-------------|-----------------------|

E|----------------|---------12--15--12-|-----------------|
B|-------------10-|-----13-------------|-13--11b--10b-/--|
G|---------10-----|-12-----------------|-----------------|
D|-10--12---------|--------------------|-----------------|
A|----------------|--------------------|-----------------|
E|----------------|--------------------|-----------------|

E|-------15-13-|--------15-13-|--------15-13-|--------15-13-|-----------|
B|15p13--------|-15p13--------|-15p13--------|-15p13--------|-15p13--15-|
G|-------------|--------------|--------------|--------------|-----------|
D|-------------|--------------|--------------|--------------|-----------|
A|-------------|--------------|--------------|--------------|-----------|
E|-------------|--------------|--------------|--------------|-----------|

|------------------------------------------|e
|-15--13--15-13----------------------------|B
|----------------14--12--14--12------------|G
|-------------------------------15-14--/12-|D
|------------------------------------------|A
|------------------------------------------|E

verso:

      Dm                                      C
Ella existiò  B-10-10--10P9H10--- ,  sòlo en un sueño, B--------8------
                                                       G-7-9-10---10-9-

       Dm                        Am     C
El es un poema que el poeta nunca escribio      E-12B----------------
         Dm                                     B-----12-13P12-13-10-
y en la inmensidad los dos
               C
unieron sus almas para darle vida
  A#           A7                                    Dm   E------1010-8--------------
A esta triste  G--10-10-10-10P9- cancion de amor,  B-8-10--------10-----------
                                             G----------------12-10-9-7-
  A#           A7                                 Dm
A esta triste  G--10-10-10-10P9-  cancion de amor. E-10P8P7----------
                                           B--------10P8P7---
                                        G---------------7-

        Dm                      C
El es como el mar, ella como la Luna
         Dm                            Am   C
y en las noches de Luna llena, hacen el amor
         Dm
y en la inmensidad los dos
             C
unieron sus almas para darle vida
  A#           A7               Dm
a esta triste cancion de amor,
  A#           A7               Dm
a esta triste cancion de amor.      B-15-13-15-13-------------------------
                            G-------------14-12-14-12-------------
                                 D-------------------------15-14-11/12-
solo:

1|------------|--------------------|-------------------------------|e
2|-10---------|-------------10-----|-------------------------------|B
3|---------10-|---------10------12-|-9h10p9------------------------|G
4|-----12-----|-10H12--------------|---------10h12p10--9h10p9------|D
5|------------|--------------------|---------------------------10--|A
6|------------|--------------------|-------------------------------|E

1|------------------------|-12b---------|-----------------------------------------------|e
2|-10---------------------|------12/13b-|-----------------------------------------------|B
3|---------10-------------|-------------|-12/14--12/14--14--12/14--12/14--14--12/15--14-|G
4|-----12------12--10--12-|-------------|-----------------------------------------------|D
5|------------------------|-------------|-----------------------------------------------|A
6|------------------------|-------------|-----------------------------------------------|E

1|------------------------|e
2|-13--15p13----------13--|B
3|------------14--12------|G
4|------------------------|D
5|------------------------|A
6|------------------------|E

1|-13/15--13-10-13-10-13-10-------------------------------------------------|e
2|---------------------------13-10-13-10------------------------------------|B
3|----------------------------------------12-10-12-10-----------------------|G
4|-----------------------------------------------------12-10-12-10----------|D
5|------------------------------------------------------------------12-10-8-|A
6|--------------------------------------------------------------------------|E

E|-13-10-----10--10-----------------------|e
B|--------13---------13-10------10--------|B
G|--------------------------12------12-10-|G
D|----------------------------------------|D
A|----------------------------------------|A
E|----------------------------------------|E

E|---------------------------------------------------------------10-13-10-13-10-15-|e
B|--------------------------------------------------10-13-10-13--------------------|B
G|-------------------------------------10-12-10-12---------------------------------|G
D|------------------------10-12-10-12----------------------------------------------|D
A|-----------10-12-10-12-----------------------------------------------------------|A
E|-13-10-13------------------------------------------------------------------------|E

E|--------15B---------15B--------15B---------15B--------|e
B|-15/13-------15/13------15/13-------15/13-------13/15-|B
G|------------------------------------------------------|G
D|------------------------------------------------------|D
A|------------------------------------------------------|A
E|------------------------------------------------------|E

E|----------------------  --------|
B|-15--13---------------  -14/15B-|
G|---------14--12-10H12V  --------|
D|----------------------  --------|
A|----------------------  --------|
E|----------------------  --------|

            AQUI LA CANTIDAD ES LO Q ATI TE PARECE PS DESDE EL |

E------------|---------------
B--15P13-----|---------------
G--------12--|-10--12--10----
D------------|------------12-
A------------|---------------
E------------|---------------

 DESPUES LO CAMBIA Y LO HACE ASI
= AQUI TOCAS CUANTAS VECES TE PARESCA
E---------------
B---------------
G--10H12P10-----
D-----------12--
A---------------
E---------------

 JUNTO CON ESTO LA SEGUNDA GUITARRA HACE ESTO

E--12B-----------
B-------12B--11--
G----------------
D----------------
A----------------
E----------------

SIGUE ESTO

E------------------------------------------------
B-----------------------------10-12--15B--13H15--
G--10--12--10-----------10-12--------------------
D-------------12-10-12---------------------------
A------------------------------------------------
E------------------------------------------------
AQUI TOCAS A TU GUSTO ASI COmo EN EL ANTERIOR DESDE | GGGGG

E-------|-13H15P13----|--17P15-13-15P13-12P13-------------------------
B--13-15|----------15-|-----------------------15----------------------
G-------|-------------|--------------------------10-12P10-10-12P10-10-...
D-------|-------------|-----------------------------------------------
A-------|-------------|-----------------------------------------------
E-------|-------------|-----------------------------------------------

E------------------------------------------------
B------------------------------------------------
G--12-10-12-10-----------------------------------
D---------------10-12-10-12----------------------
A---------------------------10-12-10-12----------
E---------------------------------------13-12-10-

E-------------------------------13-15p13----
B-------15-13-----15-13-----------------15-
G-12/14-------14--------14--/15----------------
D------------------------------------------
A------------------------------------------
E------------------------------------------

E--14-------17----18----15--17B--
B-----15-15----15----15----------
G--------------------------------
D--------------------------------
A--------------------------------
E--------------------------------

aqui viene el saxo

E----------10-8--10-8-------8----------
B---------------------10-10---10-8-10--
G-77-9-10------------------------------
D--------------------------------------
A--------------------------------------
E--------------------------------------

E-------------------------8--10-8-------12b-----------
B---------1010-8-10--8-10---------10-8------12-h13p12-
G-7-9-10----------------------------------------------
D-----------------------------------------------------
A-----------------------------------------------------
E-----------------------------------------------------

E----------10-8-----------------------------------
B-10-10-10------10-8----8h10-8--------------------
G--------------------10--------10-9-7---7-9-10-10-
D-------------------------------------------------
A-------------------------------------------------
E-------------------------------------------------

E-13b-12---------------------------------------------
B--------13-10------------------------10-8-----------
G--------------12--14-12-10-7--7-9-10------10-8-777--
D----------------------------------------------------
A----------------------------------------------------
E----------------------------------------------------

|-13b-13b-13b--13-13-----------------------------------------------------|e
|--------------------15-13-15--15--13--15-13-----------------------------|B
|--------------------------------------------14--12--14--12--------------|G
|-------------------------------------------------------------15-14--/12-|D
|------------------------------------------------------------------------|A
|------------------------------------------------------------------------|E

de nuevo

E----------10-10--10-8-------8----------
B---------------------10-10---10-8-10--
G-77-9-10------------------------------
D--------------------------------------
A--------------------------------------
E--------------------------------------

E-------------------------8--10-8-------12b-----------
B---------1010-8-10--8-10---------10-8------12-h13p12-
G-7-9-10----------------------------------------------
D-----------------------------------------------------
A-----------------------------------------------------
E-----------------------------------------------------
                             esto 2 veces
E----8----------------------|-10------------
B-10---10--8h10-8-----------|----13---10----
G-----------------10-10-9-7-|------12----10-
D---------------------------|---------------
A---------------------------|---------------
E---------------------------|---------------

E-13-13-13--13-13------------------
B------------------15-13h15p13-----
G------------------------------10--
D----------------------------------
A----------------------------------
E----------------------------------

E--------------------------------------------------
B-----------10-8-----------------------------------
G-7-9-10-10------10-9-7----------------------------
D-----------------------10-10-10--10-10-9----------
A-----------------------------------------12-10-12-
E--------------------------------------------------

|-----------------------------------------------------|E
|-15-13-15--15--13--15-13-----------------------------|B
|-------------------------14--12--14--12--------------|G
|------------------------------------------15-14--/12-|D
|-----------------------------------------------------|A

El es como un dios E----11/12b-12b- , ella es como una virgen E-16/17b-
                   B-10------------                           B--------
       Dm                    Am  se repite 2 veces
y los dioses les enseñaron a pecar  E-11b-(11)--11b-(11)- -10-
       Dm
y en la eternidad los dos
             C
unieron sus almas para darle vida
  A#           A7               Dm
a esta triste cancion de amor,
  A#           A7               Dm
a esta triste cancion de amor.

aqui biene el lara lara la

E-----------------
B--10-10-10p8-10--
G-----------------
D-----------------
A-----------------
E-----------------

lara la lara
E----------------
B----------------
G--9-10-12-10-9--
D----------------
A----------------
E----------------

lara lara la la lara

E-12p10-----------------------
B-------12-13-13v-13v-13v-13v-
G-----------------------------
D-----------------------------
A-----------------------------
E-----------------------------

lara la la la la lara

E---17b---17b------
B------------------
G------------------
D------------------
A------------------
E------------------

        lara lara la la lara
E-15h17-15b-----15h17-15b-
B-------------------------
G-------------------------
D-------------------------
A-------------------------
E-------------------------

esto va solo
lara la la lara 

lara la la laa
E-------------
B--10-10p8----
G----------10-
D-------------
A-------------
E-------------

 ESTO ES UN POCO RAPIDO

E-10-10-10-------------------------------
B-----------8-10P8-----------------------
G---------------------10-12-10-----------
D------------------12--------------10-12-
A-------------------------------12-------
E----------------------------------------

lara la la la

E-------12b--9/10b--
B--10b--------------
G-------------------
D-------------------
A-------------------
E-------------------

lo de mas me dio pereza escribirlo, solo les digo q ya casi al 
terminar va con taping eso creo q les ayudara de algo ps

espero q les halla gustado ps porque la verdad  es q estuvo un poquito difícil sacarla
espero q les ayude a corregir sus errores o los míos, si es que ya lo sacaron mejor,
mándenmelo a mi correo ps

esta version es otra de:
                                                            __
                                                               +|oo|+
                                                               +|oo|+
                                          _       _      _   _   ||
        ////////   /////      ///////    //      //     //  //   ||
       //         //  //     //   //    // //   //     // //  _  ||  _
      //         /////      //   //    //   // //     ///     \\_||_//
     ////////   ///        ///////    //     ///     //  //    | || |
    //         //  //     //   //    //      //     //    //   | || |
                                                   /_ [] _\
                                                              \______/
Suggest correction
Give kudos to tab author, rate the tab!
1 2 3 4 5
comments
print report bad tab
guest
You may want to rate the tab now too:
select rating
Wanna post a correction for this tab? Suggest correction