Oops, an error
Loading. Please wait.

Triste Canción Bass

version 3
version 3

Whole song

Interactive

by El Tri
27 views 1 this week
no commentswrite comment
1 2 3 4 5
3 more votes to show rating
add to favorites
launch autoscroll
font size
0
reset
guitar tuner
backing track
0:00
0:00
×
Best way to learn
"Triste Canción"
Autoscroll
slow
fast
+/-
esc
set tempo
stop
q hongo banda revise las tab y creo q no son muy buenas sper0
y esto les sirva
ami pareser suena bn..

intro:

G|-------------------------------------------------------------
D|------------------------------------------------------7-7-7~-
A|-55---3-4-55---3-4-33---1-2-33---1-2-55---3-4-55---3-4-------
E|---3-5------3-5------1-3------1-3------3-5------3-5----------

G|-----------------------------------------------------------------
D|-----------------------------------------------------------------
A|-55---3-4-55---3-4-33---1-2-33---1-2-111111------3-4-55---3-4-5--
E|---3-5------3-5------1-3------1-3----------55-3-5------3-5-------

ella existio solo en un sueño:

G|-------------------------------------------------------------
D|------------------------------------------------------7-7-7~-
A|-55---3-4-55---3-4-33---1-2-33---1-2-55---3-4-55---3-4-------
E|---3-5------3-5------1-3------1-3------3-5------3-5----------

G|-----------------------------------------------------------------
D|-----------------------------------------------------------------
A|-55---3-4-55---3-4-33---1-2-33---1-2-111111------3-4-55---3-4-5--
E|---3-5------3-5------1-3------1-3----------55-3-5------3-5-------

esto es toda la pieza de esta rolota oiganla y acomodenla

esto es la parte final donde dise masomenos asi de laira..laira..laira
en lo rapido:

G|------ESTO-ES-UN-APROXIMADO----------------------------
D|-------------------------------------------------------
A|-1111111111111----------5555555555555555555555---------
E|--------------5555555555-----------------------------X3

y el final de finales:

G|-------------|                      G|-------|
D|-------------| esto es como q       D|--12~--|
A|-1~-5~-------| una nota q lleva---> A|-------|
E|--5~---------| al final.......      E|-------|

!!ESPER0 Y LES SIRVA SOLO ACOMODENLA...SUERTE

ALE TE AMO ERES ESPECIAL PARA MI
Suggest correction
Give kudos to tab author, rate the tab!
1 2 3 4 5
comments
print report bad tab
guest
You may want to rate the tab now too:
select rating
Wanna post a correction for this tab? Suggest correction