Oops, an error
Loading. Please wait.

Triste Canción Chords

version 2
version 2

Whole song

Interactive

by El Tri
167 views 1 this week
no commentswrite comment
1 2 3 4 5
3 more votes to show rating
add to favorites
×
Save as Personal and add changes to this tab that will be seen only by you. Learn more ›
×
You can save this tab as Personal to edit and correct it or add notes. All changes will be seen only by you. Learn more »
save as personal
new!
launch autoscroll
font size
0
reset
transpose
0
reset
display chords
guitar tuner
backing track
0:00
0:00
Autoscroll
slow
fast
+/-
esc
set tempo
stop
Strumming
There is no strumming pattern for this song yet. and get +5 IQ
Esta es la verdadera version de la intro
ya que las demas tienen varios notables cambios

Va dedicada a la banda de el 5° B
de parte de el tamara

Colaboración de Luis Alberto Cruz
rock_haward@


e|--------------------------------------------
b|-10------------------10---------------------
g|-------10--------10----12--10-9-------------
d|----12-----10-12----------------12-10-------
a|--------------------------------------------
e|--------------------------------------------

e|----------------------12-12------------------
b|-10-------------------------13-13------------
g|-------10------------------------------------
d|----12----12-10-12---------------------------
a|---------------------------------------------
e|---------------------------------------------


e|----------------------------------------
b|-10-------------------------------------
g|-------10-------------------------------
d|----12----12-10-12-12-------------------
a|----------------------------------------
e|----------------------------------------


e|------------------------12-12-15-15-12--
b|----------10-------13-13----------------
g|--------10----12-12---------------------
d|--10-12---------------------------------
a|----------------------------------------
e|----------------------------------------


e|----------------------------------------
b|---10-11----11-10-----------------------
g|-10-------------------------------------
d|----------------------------------------
a|----------------------------------------
e|----------------------------------------

e|----15-13---15-13---15-13---15-13-------
b|--15------15------15------15------------
g|----------------------------------------
d|----------------------------------------
a|----------------------------------------
e|----------------------------------------

e|----------------------------------------
b|-15-13-15---15-13-----------------------
g|------------------14-12-----------------
d|------------------------15--------------
a|----------------------------------------
e|----------------------------------------

Esta es la intro de la rola, so oye chido ya sea
con lira electrica o acustica, el solo es el mismo,
nada mas que con mas arreglos.
Que la disfruten niños y ¡que viva el rock&roll!
Suggest correction
Give kudos to tab author, rate the tab!
1 2 3 4 5
comments
print report bad tab
guest
Wanna post a correction for this tab? Suggest correction