Oops, an error
Loading. Please wait.

Triste Canción Bass Tab

version 4
version 4

Whole song

Interactive

62 views 1 this week
no commentswrite comment
1 2 3 4 5
3 more votes to show rating
add to favorites
launch autoscroll
font size
0
reset
guitar tuner
backing track
0:00
0:00
×
Best way to learn
"Triste Canción"
Autoscroll
slow
fast
+/-
esc
set tempo
stop
Bueno pues aquí esta esta tab tan esperada, de sin duda alguna una de
las mejores canción de EL TRI DE MÉXICO!!!!!!!!la tab es 100% correcta.
Que viva el Rock n´Roll!!!!!!!!!!!!!!!!

El bajeo en esta cación lleva un buen ritmo agarren bien los tiempos.
Con esos 3 pentagramas se va toda la canción...SUERTE!!!

    ****tODO VA LIGADO***  los 3 pentagramas

G|--------------------------------------------|
D|--------------------------------------------|
A|-55----3455--35-33--1233--1255--3455--35000-|
E|----55-----55-----33----33----55----55------|

G|--------------------------------------------------------------------------|
D|--------------------------------------------------------------------------|
A|--345-55--345-55--35-33--1233--13-111111111-00000000-55--3455-111111-0000-|
E|-5------55------55-----33----33------------------------55-----------------|


G|-----------------------------------------------|
D|-----------------------------------------------|
A|--345-5555-345555-11111111-00000000-55555--345-|
E|-5--------5-------------------------------5----|


Y éste es el final de la canción:

G|------------|
D|------------|
A|-1--0--5~~~-|
E|------------|


ENSAYENLA VARIAS VECES Y VAN A VER QUE SI ESTÁ CORRECTA..
Suggest correction
Give kudos to tab author, rate the tab!
1 2 3 4 5
comments
print report bad tab
guest
You may want to rate the tab now too:
select rating
Wanna post a correction for this tab? Suggest correction