Oops, an error
Loading. Please wait.

Abre La Puerta Niña Tab

version 1
version 1

Whole song

640 views 6 this week
2 commentsread comments
1 2 3 4 5
1 last vote to show rating
add to favorites
launch autoscroll
font size
0
reset
how to read this tab
guitar tuner
×
Best way to learn
"Abre La Puerta Niña"
Autoscroll
slow
fast
+/-
esc
set tempo
stop
este es un arpegio que aparece al final de la cancion en la parte instrumental

  RE m            ????            LA#
(---1---)            (---3---)        (-------)
(---3---)            (---1---)        (---3---)
(---2---)            (-------)        (---3---)
(-------)            (-------)        (---3---)
(-------)            (---3---)        (---1---)
(-------)            (-------)        (-------)

                 REm                           ?????                    
--------------------1---------------------------3-----------------------
---------------3--------3-------------------1-------1-------------------
-----------2---------------2------------0----------------0--------------
--------0---------------------------------------------------------------
-------------------------------------3----------------------------------
------------------------------------------------------------------------


        LA#                                                LA#
-----------0-----------1-----------0-------------------------0-------------
-------3-------3-----------3------------3----------------3--------3--------
----3--------------3----------3-------------3---------3---------------3----
---------------------------------------------------------------------------
-1-------------------------------------------------1-----------------------
---------------------------------------------------------------------------


         ??????                       REm
-----------3----------------------------1-----------1----------1----------
-------1------1---------------------3--------3----------3-----------------
---0-------------0---------------2--------------2----------2--------------
--------------------0--------0--------------------------------------------
-3------------------------------------------------------------------------
--------------------------------------------------------------------------

se repite.y despues un rasgeo siguiendo lasmismas notas
la nota ????????? es porque no se que nota puede ser.

es bonito y espero que os guste,siento no poder ayudar mas, hasta luego!!!
Suggest correction
Give kudos to tab author, rate the tab!
1 2 3 4 5
comments
print report bad tab
2 comments total.
0 reply
greenguitar_91 10 Feb 23, 2016 11:00 AM

La quiero en guitar pro, no este chapú.

0 reply
lechuzacomun1999 10 Mar 05, 2017 06:33 PM

Gracias por el arpegio :)

guest
You may want to rate the tab now too:
select rating
Wanna post a correction for this tab? Suggest correction