Oops, an error
Loading. Please wait.

Abre La Puerta Niña Tab

version 2
version 2

Whole song

by Triana
514 views 3 this week
1 commentread comment
1 2 3 4 5
1 last vote to show rating
add to favorites
×
Save as Personal and add changes to this tab that will be seen only by you. Learn more ›
×
You can save this tab as Personal to edit and correct it or add notes. All changes will be seen only by you. Learn more »
save as personal
new!
launch autoscroll
font size
0
reset
how to read this tab
guitar tuner
Autoscroll
slow
fast
+/-
esc
set tempo
stop
En esta transcripción trato de ofrecer la parte instrumental cantada
y parte de uno de los solos de guitarra clásica.
Espero que disfrutéis de la canción.

Rasgueo  LAm   LA#

REm  DO  LA# LA

REm                        DO                  LA#
-----------------------3-|------8--6--5-6-5--|----------3-------------
--3--1---3--5--6--5--6---|-------------------|--3--5--6----6--5-6-5-3-
-------------------------|-------------------|------------------------
-------------------------|-------------------|------------------------
-------------------------|-------------------|------------------------
-------------------------|-------------------|------------------------

                 LA        REm                    DO
---------------|---------|----------------------|---8--10--10---12----
1--3--1-3-1----|---------|-3--5--6--8--8-----10-|---5-----------------
-------------3-|-2-------|----------------------|---5-----------------
---------------|---------|----------------------|---5-----------------
---------------|---------|----------------------|---------------------
---------------|---------|----------------------|---------------------

                 LA#                                           LA
--10-12-10--8--|-------------3-------------------------------|--------
---------------|----3--5--6----6---5-6-5--3--1--3--1-3-1-----|--------
---------------|------------------------------------------3--|--2-----
---------------|---------------------------------------------|--------
---------------|---------------------------------------------|--------
---------------|---------------------------------------------|--------

REm                  DO                                 LA#
-----8--6--5-6-5---|----------------------------------|---0-----------
-------------------|----------------------------------|---3---6--6--5-
-------------------|---3--5--5--5--5--5--5--7-----9---|---3-----------
-------------------|----------------------------------|---3-----------
-------------------|----------------------------------|---------------
-------------------|----------------------------------|---------------

                       LA         REm        DO
---------------------|-----------|---------|---8--10--10---12---------
6---3--1----3--1-----|-----------|---------|---5----------------------
------------------3--|--2--------|---------|---5----------------------
---------------------|-----------|---------|---5----------------------
---------------------|-----------|---------|--------------------------
---------------------|-----------|---------|--------------------------

                     LA#                                 LA
--10-12-10--8------|--------3--------------------------|---------|----
-------------------|--5--6-----6---5-6-5---------------|---------|----
-------------------|------------------------3----5--2--|---------|----
-------------------|-----------------------------------|---------|----
-------------------|-----------------------------------|---------|----
-------------------|-----------------------------------|---------|----


REm                        LAm  SIm7
YO QUISE SUBIR AL CIELO PARA VER
REm                                 LAm SIm DO
Y BAJAR HASTA EL INFIERNO PARA COMPRENDER
REm       LAm         REm          LAm
QUE MOTIVO ES         QUE NOS IMPIDE VER
LA#7      LA     LA#    LA   LA#     LA
DENTRO DE TI    DENTRO DE TI,  DENTRO DE MI


INSTRUMENTAL:  REm DO LA#    LA# DO REm   2 veces


(Como instrumental)
ABRE LA PUERTA NIÑA QUE EL DIA VA A COMENZAR
SE MARCHAN TODOS LOS SUEÑOS ENPIEZAS A DESPERTAR
POR LA MAÑANA AMANECE  LA VIDA Y UNA ILUSION
DESEOS QUE SE RETUERCEN MUY DENTRO DEL CORAZON.


(Como instrumental)


SOÑABA QUE TE QUERIA SOÑABA QUE ERA VERDAD
QUE LOS LUCEROS TENIAN MISTERIOS PARA SOÑAR
HAY UNA FUENTE NIÑA QUE LA LLAMAN DEL AMOR
DONDE BAILAN LOS LUCEROS Y LA LUNA CON EL SOL.


(Como instrumental)


ABRE LA PUERTA NIÑA Y DALE PASO AL AMOR
MIRA QUE MISTERIO TIENE ESA NUBE CON EL SOL
POR LA MAÑANA AMANECE LA VIDA Y UNA ILUSION
DESEOS QUE SE RETUERCEN MUY DENTRO DEL CORAZON
HAY UNA PUERTA NIÑA QUE LA LLAMAN DEL AMOR
DONDE BAILAN LOS LUCEROS Y LA LUNA CON EL SOL


(Como instrumental)


Cuando tenga un poco más de tiempo intentaré plasmar lo que falta de
guitarra clásica, ese solo tan mágico.
Me pareció muy buena la colaboración de Juan Alonso y la parte cantada
es suya, te la tomo prestada xDD, para completarlo un poco más aunque
he modificado algo de letra, gracias.

Dedicada a todos los que aún siguen escuchando Triana.

--------------------------------------------------------------------------
Suggest correction
Give kudos to tab author, rate the tab!
1 2 3 4 5
comments
print report bad tab
1 comment total.
0 reply
lechuzacomun1999 10 Mar 05, 2017 06:34 PM

Gracias :)

guest
Wanna post a correction for this tab? Suggest correction