Oops, an error
Loading. Please wait.

Por Tí Tab

53 views 1 this week
no commentswrite comment
1 2 3 4 5
3 more votes to show rating
add to favorites
launch autoscroll
font size
0
reset
how to read this tab
guitar tuner
×
Best way to learn
"Por Tí"
Autoscroll
slow
fast
+/-
esc
set tempo
stop
Intro.
Tribu del Sol. Por Ti.

Intro.

E----------------------------------------7---7---7---7---------------------------------
B--------------7-----------------------7---7---7---7-----------------------------------
G---8--9---11---------9-8-------8-----------------------9-8----------------------------
D---------------------------11-----9---------------------------------------------------
A--------------------------------------------------------------------------------------
E--------------------------------------------------------------------------------------

E----------------------------------------------------------------------------------
B-------------12---11--11---12--14--14---12----5/7---8/9---8-----------------------
G--8--9--11------------------------------------------------------------------------
D----------------------------------------------------------------------------------
A----------------------------------------------------------------------------------
E----------------------------------------------------------------------------------
Suggest correction
Give kudos to tab author, rate the tab!
1 2 3 4 5
comments
print report bad tab
guest
You may want to rate the tab now too:
select rating
Wanna post a correction for this tab? Suggest correction