Oops, an error
Loading. Please wait.

Mutuo Caparazón Chords

10 views 1 this week
no commentswrite comment
1 2 3 4 5
3 more votes to show rating
add to favorites
launch autoscroll
font size
0
reset
transpose
0
reset
simplify chords
display chords
guitar tuner
×
Best way to learn
"Mutuo Caparazón"
Autoscroll
slow
fast
+/-
esc
set tempo
stop
Pueden usar Los acordes normales en lugar de usar los acordes
que estan en quinta, igual suena bien, es decir, los acordes
serian: Re Sim Sol La.

Re5  (x57xxx)
Si5  (x24xxx)
Sol5 (35xxxx)
La5  (57xxxx)


D5
Danza,
B5         G5            D5
la materia danza y nuestra nave avanza
B5             G5            D5
viajando entre escamas de un niño dragon
A5             G5            D5
viajando entre escamas de un niño dragon.


E
Y crece,
C#m           A            E
el temporal florece al ver como se tuerce
C#m          A            E
el furtivo intento de otra direccion
B            A            E
el furtivo intento de otra direccion.


D
Tentaculos, sueños de pulpos sin dueños
E
no pueden rosar mutuo caparazon
D
Anguilas suicidas de debil semilla
E
no pueden rosar mutuo caparazon
D
Moluscos batracios, anfibios, crustaceos
E
no pueden rosar mutuo caparazon
B                              A                  E
No hay chance al percance que intente quebrar mutuo caparazon.


Solo

   E   C#m    A      E       C#m    A      MI
E ---------------------------------------------------------|
B ---------------------------------------------------------|
G ------9-8-6-------------6------9-8-6-------------6-------|
D -6----------9-7-6---6-9---9-6~-------9-7-6---6-9--6-9~---|
A ---7~-------------7------------------------7-------------|
E ---------------------------------------------------------|

   B      A      E
E ---------------------------------------------------------|
B ---------------------------------------------------------|
G ---------------------------------------------------------|
D -4-4-6-6-------------------------------------------------|
A ---------9-7---7-9-7-7~----------------------------------|
E -------------9-------------------------------------------|


D      E
Ahhhhh, Ahhhhh
D      E
Ahhhhh, Ahhhhh


D
Pese,
Bm                G         D
y aunque el tiempo pese sobre nuestra especie
Bm          G           D
sere puerto donde enganche tu embarcacion
A            G           D
seras puerto donde enganche mi embarcacion
A                           G                 D
sin chance al percance que intente quebrar mutuo caparazon,
A                           G                 D
sin chance al percance que intente quebrar mutuo caparazon,
A                           G
sin chance al percance que intente quebrarnos.


Cualquier duda o comentario escribanme a mi mail:
cpavon@ o envienme un mensaje al 099111118
Suggest correction
Give kudos to tab author, rate the tab!
1 2 3 4 5
comments
print report bad tab
guest
You may want to rate the tab now too:
select rating
Wanna post a correction for this tab? Suggest correction