Oops, an error
Loading. Please wait.

San Seacabó Chords

2 views 1 this week
no commentswrite comment
1 2 3 4 5
3 more votes to show rating
add to favorites
launch autoscroll
font size
0
reset
transpose
0
reset
simplify chords
display chords
guitar tuner
Autoscroll
slow
fast
+/-
esc
set tempo
stop
Help us to improve Ultimate-Guitar.com Take our survey!
×
Intro:


   Em   G Am         B7   Em      G Am          B7

E --------------0---5-3---3-2---3-3-3-5-7~---0-5-0-8-5-0-8-7--|
B -8-7-5------------------------------------------------------|
G -------4~---5---5-----5-------------------------------------|
D ------------------------------------------------------------|
A ------------------------------------------------------------|
E ------------------------------------------------------------|


   Em

E ------------------------------------------------------------|
B -12/8-8~---8/5-5~---5-0---0---------------------------------|
G ------------------------------------------------------------|
D ----------------------------2~------------------------------|
A ------------------------------------------------------------|
E ------------------------------------------------------------|


Em
Otra vuelta vuelve a dar
               G   Am
la rueda universal
              Em
y de vuelta empezar


Em
Todos tienen su papel
                       G   Am
todos siempre algo que ver
                  Em
y en su ley muere el pez


G              Am
Fue suficiente tiempo de pagar
     Em
de caer para poder andar
G                   Am
llenarse y artarse de golpes
           Em                      B7
casi por deporte se nos dio tan mal y hoy lo siento


G       Am
Ohhhhhh, ohhhhhh
   Em                     B7
no fue mi intencion ni por solo un momento
G       Am
Ohhhhhh, ohhhhhh
   Em               B7
llenarte de dudas sembrarte un tormento


G               Am
Contra viento y marea
               Em
del miedo y la cara y escucha mi piel
  Am                  B7    Am        B7      Em
a cambio de un nuevo mañana dejemos a un lado el ayer


   Em   G Am         B7   Em      G Am          B7

E --------------0---5-3---3-2---3-3-3-5-7~---0-5-0-8-5-0-8-7--|
B -8-7-5------------------------------------------------------|
G -------4~---5---5-----5-------------------------------------|
D ------------------------------------------------------------|
A ------------------------------------------------------------|
E ------------------------------------------------------------|


Solo


   C               Em                  C

E -----3---2---3--------3-------2---3--------3-------3h5---3------|
B ---5---5---5---5----5---5---5---5---5----5---5---5-----5---5----|
G -5----------------4-------4------------5-------5----------------|
D ----------------------------------------------------------------|
A ----------------------------------------------------------------|
E ----------------------------------------------------------------|


   Em                        C                                         Em

E --------8---------8----8-7--------10----10-------8----8----8---8--8--8-7-7-7--|
B -----10---10---10---10------10/12----12----12/10---10---10----10-10-10-8-8-8--|
G -8/9---------9----------------------------------------------------------------|
D ------------------------------------------------------------------------------|
A ------------------------------------------------------------------------------|
E ------------------------------------------------------------------------------|


   Am             B7

E ----------------------------|
B -7/8~-7-7/5-5~--12h13h12~---|
G ----------------------------|
D ----------------------------|
A ----------------------------|
E ----------------------------|


Em
Fue tan crudo el vendaval
                  G   Am
tanto perdimos de dar
            Em
tanto de cada cual


Em
Pero lo rudo paso
                G   Am
yace la mal decision
               Em
junto a san seacabo


G                    Am
Que quede atras el alboroto
                 Em
y las ruinas de nuestros corazones rotos
G               Am
erre como humano borre con el codo
      Em             B7
lo que hizo mi mano y te digo hoy lo siento


G       Am
Ohhhhhh, ohhhhhh
   Em                     B7
no fue mi intencion ni por solo un momento
G       Am
Ohhhhhh, ohhhhhh
   Em               B7
llenarte de dudas sembrarte un tormento


G               Am
Contra viento y marea
               Em
del miedo y la cara y escucha mi piel
   Am                  B7    Am        B7      Em
/a cambio de un nuevo mañana dejemos a un lado el ayer/ x2

   Am                B7
Ya san seacabo una plegaria


Si tienen alguna duda o comentario escribanme a mi mail
Suggest correction
Give kudos to tab author, rate the tab!
1 2 3 4 5
comments
print report bad tab
guest
You may want to rate the tab now too:
select rating
Wanna post a correction for this tab? Suggest correction