Oops, an error
Loading. Please wait.

Contigo Chords

25 views 1 this week
no commentswrite comment
1 2 3 4 5
3 more votes to show rating
add to favorites
×
Save as Personal and add changes to this tab that will be seen only by you. Learn more ›
×
You can save this tab as Personal to edit and correct it or add notes. All changes will be seen only by you. Learn more »
save as personal
new!
launch autoscroll
font size
0
reset
transpose
0
reset
simplify chords
display chords
guitar tuner
Autoscroll
slow
fast
+/-
esc
set tempo
stop
Strumming
There is no strumming pattern for this song yet. and get +5 IQ
e----12--12--12---15---12---------------------|-------------------------
b----------------------------13---12----------|-------------------------
g--------------------------------------14-----|-------------------------
d---------------------------------------------|-------------------------
a---------------------------------------------|-------------------------
e---------------------------------------------|-------------------------

e------------------------------12----15----12---------------------------
b--------------12---13----15--------------------15--13---12-------------
g----13---14--------------------------------------------------14---13-12
d-----------------------------------------------------------------------
a-----------------------------------------------------------------------
e-----------------------------------------------------------------------

e----15--17--15--17--15--15---12----------------------------12--13------
b---------------------------------15----13---15---13---15---------------
g-----------------------------------------------------------------------
d-----------------------------------------------------------------------
a-----------------------------------------------------------------------
e-----------------------------------------------------------------------

e--12---13---12---13---14---15--|---------------------------------------
b-------------------------------|---------------------------------------
g-------------------------------|---------------------------------------
d-------------------------------|---------------------------------------
a-------------------------------|---------------------------------------
e-------------------------------|---------------------------------------


(El tono original en el que la cantan los trio es en RE, 
pero se las voy a dar en DO para que no este tan alto, 
el requinto tambien esta en DO, el acompañamiento del requinto 
es en circulo de DO, Do - Lam - Rem - Sol7)

    C             
Tus besos se llegaron a recrear
            Dm    G7
aqui en mi boca
    Dm                      G7
llenando de ilusion y de pasion 
        C
mi vida loca

                               Am
Las horas mas felices de mi amor
            Dm   G7   
fueron contigo
     Dm                        G7               C
por eso es que mi alma siempre extraña el dulce alivio

   C          Em           Am
Te puedo yo jurar ante un altar
            Dm    G7
mi amor sincero
    Dm                    G7
a todo el mundo le puedes contar
         C   
que si te quiero
                               C7
Tus labios me enseñaron a sentir
            F
lo que es ternura
    Dm               G 
y no me cansare de bendecir
          C
tanta dulzura
Suggest correction
Give kudos to tab author, rate the tab!
1 2 3 4 5
comments
print report bad tab
guest
Wanna post a correction for this tab? Suggest correction