Oops, an error
Loading. Please wait.

Sin Un Amor Chords

13 views 1 this week
no commentswrite comment
1 2 3 4 5
3 more votes to show rating
add to favorites
×
Save as Personal and add changes to this tab that will be seen only by you. Learn more ›
×
You can save this tab as Personal to edit and correct it or add notes. All changes will be seen only by you. Learn more »
save as personal
new!
launch autoscroll
font size
0
reset
transpose
0
reset
simplify chords
display chords
guitar tuner
Autoscroll
slow
fast
+/-
esc
set tempo
stop
Strumming
There is no strumming pattern for this song yet. and get +5 IQ
(en este tono la cantan los trio)

                               Em                                   Am                        
e-------10--12--10--------------------7--8--10--8--7-----------------
b---13--------------13--12--10--12--------------------10--8--7--8--10
g--------------------------------------------------------------------
d--------------------------------------------------------------------
a--------------------------------------------------------------------
e--------------------------------------------------------------------
                           Mi  ....  (se repite el requinto)
e----5--7--8--7--5---------------------------------------------------
b--------------------8--7--5-----------------------------------------
g--------------------------------------------------------------------
d--------------------------------------------------------------------
a--------------------------------------------------------------------
e--------------------------------------------------------------------

       Em
Sin un amor
                     Am
La vida no se llama vida
 
Sin un amor
                      Em
le falta fuerza al corazon

sin un amor 
                     Am
el alma muere derrotada
                   Em
Desesperada en el dolor
                  B7
sacrificada sin razon
                               Em
sin un amor no hay salvacion

Em                        Am
No me dejes de querer te pido
F#             B7        Am
no te vayas a ganar mi olvido
   Em
Sin un amor 
                Am
el alma muere derrotada
                   Em
Desesperada en el dolor
                 B7
sacrificada sin razon
                         Em
sin un amor no hay salvacion


Humberto Hernandez
Si quieren mas pidanme
Suggest correction
Give kudos to tab author, rate the tab!
1 2 3 4 5
comments
print report bad tab
guest
Wanna post a correction for this tab? Suggest correction