Oops, an error
Loading. Please wait.

Amor Añejo Chords

7 views 1 this week
no commentswrite comment
1 2 3 4 5
3 more votes to show rating
add to favorites
launch autoscroll
font size
0
reset
transpose
0
reset
simplify chords
display chords
guitar tuner
Autoscroll
slow
fast
+/-
esc
set tempo
stop
Help us to improve Ultimate-Guitar.com Take our survey!
×
Acorde Am
\
 ]---|---|---|---|
 ]-O-|---|---|---|
 ]---|-O-|---|---|
 ]---|-O-|---|---|
 ]---|---|---|---|
x]---|---|---|---|
/


Acorde A7
\
 ]---|---|---|---|
 ]---|-O-|---|---|
 ]---|---|---|---|
 ]---|-O-|---|---|
 ]---|---|---|---|
x]---|---|---|---|
/


Acorde Dm
\
 ]-O-|---|---|---|
 ]---|---|-O-|---|
 ]---|-O-|---|---|
 ]---|---|---|---|
 ]---|---|---|---|
x]---|---|---|---|
/


Acorde G7
\
 ]-O-|---|---|---|
 ]---|---|---|---|
 ]---|---|---|---|
 ]---|---|---|---|
 ]---|-O-|---|---|
 ]---|---|-O-|---|
/


Acorde C
\
 ]---|---|---|---|
 ]-O-|---|---|---|
 ]---|---|---|---|
 ]---|-O-|---|---|
 ]---|---|-O-|---|
 ]---|---|---|---|
/


Acorde F
\
 ]-O-|---|---|---|
 ]-O-|---|---|---|
 ]---|-O-|---|---|
 ]---|---|-O-|---|
 ]---|---|-O-|---|
 ]-O-|---|---|---|
/


Acorde E7
\
 ]---|---|---|---|
 ]---|---|---|---|
 ]-O-|---|---|---|
 ]---|---|---|---|
 ]---|-O-|---|---|
 ]---|---|---|---|
/


REQUINTO:


e--0-8-7-5-4-5-0-8-7-5-4-5-0-8-7-5-4-5-5------]
B-----------------------------------------6---]
G-------------------------------------------7-]


e----7-5------------7-5--------------7-5--------------]
B---------8-7-8----------8-7-8------------8-7-8-8-5---]
G--7--------------7---------------7-----------------5-]


e----5-3------------5-3------------5-3--------------]
B---------6-5-6----------6-5-6----------6-5-6-6-3---]
G--5--------------5--------------5----------------4-]


e--------------------------------------------]
B--5--5--3--5--3--5--5--1--1--3--3--0--0--1--]
G--5--5--4--5--4--5--5--2--2--4--4--1--1--2--]


 Am                            A7                  Dm
Sobre mis sienes brillan la escarcha que deja el tiempo
         G7                          C
y de la vida tengo un monton de conocimiento
               Dm                 Am
y te vengo a pedir un poquito de amor
                F    E7          Am
porque puedo quererte  como un señor.


 Am                         A7           Dm
Dale a mi vida la inmensa dicha de tu presencia
         G7                               C
para ofrecerte noches divinas con mi experiencia
               Dm                   Am
pues me sobra valor y te confieso ahora
                   F  E7          Am
que sabre hacer de ti   la gran señora.


C                           G7
Se que junto a mi eres mas joven
C                              G7
se que en realidad yo soy mas viejo
               Dm              Am
pero te puedo amar cuando tu quieras
               E7                 Am
para hacerte feliz con este amor añejo.


         Am              A7            Dm
Solo te pido que seas conmigo leal y sincera
          G7                          C
así por siempre seras mi amante mi compañera
                Dm             Am
solo tienes que ser una buena mujer
          F                E7          Am
y aqui conmigo ni amor ni nada te faltara
          F                E7          Am
y aqui conmigo ni amor ni nada te faltara.
Suggest correction
Give kudos to tab author, rate the tab!
1 2 3 4 5
comments
print report bad tab
guest
You may want to rate the tab now too:
select rating
Wanna post a correction for this tab? Suggest correction