Oops, an error
Loading. Please wait.

Sin Tí Tab

19 views 1 this week
no commentswrite comment
1 2 3 4 5
3 more votes to show rating
add to favorites
launch autoscroll
font size
0
reset
how to read this tab
guitar tuner
×
Best way to learn
"Sin Tí"
Autoscroll
slow
fast
+/-
esc
set tempo
stop
Dedicado a: Maria de los Ángeles         de: José

El requinto se debe tocar al aire afinado en La mayor,
inicia primero el requinto y después el acompañamiento
de guitarra normal  también al aire
       

A---------------------------------------Em-----
D----------------------------------------------
G----------------------------------------------
C----------------------------------------------
E---2--3--4--5-----------------------7---------
A -------------------5---7---5---7-------5-----

A-----------------------------A7---------------
D----------------------------------------------
G----------------------------------------------
C-------------------3----2----1----------------
E----0---2----0--------------------------------
A

A----------------------------------------------
D----------------------------------------------
G----------------------------------------------
C----------------------------------------------
E----------------------------------------------
A---4---5---4---5---6---7---5---7---5---4------

A--D-------------------------------------------
D----------------------------------------------
G----------------------------------------------
C----------------------------------------------
E----------------------------------------------
A--5-------7-----------------------------------
     CINCO VECES

A----------------------------------------------
D----------------------------------------------
G----------------------------------------------
C----------------------------------------------
E----------------2-----------------------------
A-5-----0----------------0-------5------2------


A--------F#m-----------------------------------
D----------------------------------------------
G----------------------------------------------
C----------------------------------------------
E----------------------------------------------
A--------4------5------------------------------
CINCO VECES

A----------------------------------------------
D----------------------------------------------
G----------------------------------------------
C----------------------------------------------
E----------------2-----------------------------
A----4-----0-------------0------4---------0----

A--------------Em------------------------------
D----------------------------------------------
G----------------------------------------------
C----------------------------------------------
E----------------------------------------------
A---------------2--------4---------------------
            CINCO VECES

A----------------------------------------A7----
D----------------------------------------------
G----------------------------------------------
C--------------2-------------------------------
E---------3-----------3-------------3----------
A---2------------------------2-----------0-----

Realmente no conozco este rasgueo pero en el  
requinto asi suena
A-----------/              dudas comentarios o
D-----3-----/            el nombre de esta nota
G-----2-----/           Escríbanme a:
C-----1-----/
E-----1-----/      faqua05@
A-----0-----/
Suggest correction
Give kudos to tab author, rate the tab!
1 2 3 4 5
comments
print report bad tab
guest
You may want to rate the tab now too:
select rating
Wanna post a correction for this tab? Suggest correction