Oops, an error
Loading. Please wait.
404 views 6 this week
no commentswrite comment
1 2 3 4 5
x 3
add to favorites
launch autoscroll
font size
0
reset
how to read this tab
guitar tuner
×
Best way to learn
"Jueves"
Autoscroll
slow
fast
+/-
esc
set tempo
stop
Intro:
         Am9             Fm9    Em            Fmaj7          Em
e|--------7--7--7--|------3--------0----|--|------0-----------0--|--||
b|---------5--5--5-|-------1---------0--|--|---------------0---0-|--||
g|-----5----5--5--5|----1---1----0-----0|x4|----2----0---0------0|--||
d|---7-------------|--3--------2--------|--|--3----3---2---------|x3||
a|-0------0--0--0--|--------------------|--|---------------------|--||
E|-----------------|-1----1---0---------|--|1--------------------|--||

e|----------|------|---------||
b|----------|------|---------||
g|----------|------|---------||
d|-(3)------|------|---------||
a|-(5)---(3)|-(2)--|---------||
E|----------|------|-(4)-----||

Estrofa:
       Am       Am/B Am/C        F                E
e|-------------|---------|--------------|--------------|
b|-------1-----|---------|--------1-----|---------0----|
g|-----2---2---|---------|------2---2---|-------1---1--|
d|---2-------2-|---------|----3-------3-|-----2------2-|
a|-0-----------|---2-3---|--------------|--------------|
E|-------------|---------|--1-----------|--0-----------|

Am     Am/B Am/C     F       E
   Perdimos la capacidad
Am   Am/B Am/C     F   E
   decimos lo que es...

Am    Am/B  Am/C     F       E
   Mi corazon no es un panal
Am   Am/B Am/C  F      E
   residuos del ayer...

Estribillo:
       F            G         Am   Amsus2  Amsus4       F
e|-----------|-------------|---------------------|-----------|
b|------1----|-------3-----|-------1-----0----3--|------1----|
g|----2---2--|-----4---4---|-----2---2-----2---2-|----2---2--|
d|---3-----3-|---5-------5-|---2------2-----2---2|---3-----3-|
a|-----------|-------------|-0-------------------|-----------|
E|-1---------|-3-----------|---------------------|-1---------|

      G         Am         Asus2
e|-------------|---------------------|--|
b|-------3-----|-------1-----0----0--|--|
g|-----4---4---|-----2---2-----2---2-|--|
D|---5-------5-|---2------2-----2---2|x2|
A|-------------|-0-------------------|--|
E|-3-----------|---------------------|--|


F        G          Am   Amsus2 Amsus4
  No es facil recordar promesas
F       G       Am    Amsus2
  ¿en donde estare?
F    G           Am      Amsus2 Amsus4
  Espacios en color violeta
F       G       Am    Amsus2
  ¿en donde estare?

Corte:
e|--------||
b|--------||
g|--------||
d|--------||
a|-----0--||
E|0-3-----||


Verso:
(igual al anterior)


Am   Am/B  Am/C     F        E
   Dejamos lo que siempre fue
Am    Am/B Am/C   F         E
   la vieja majestad

Am    Am/B Am/C  F       E
 Deja ver tu color de piel
Am   Am/B Am/C  F    E
 y enseñame a querer

Estribillo:
(igual al anterior)


F        G          Am   Amsus2 Amsus4
  No es facil recordar promesas
F       G       Am    Amsus2
  ¿en donde estare?
F    G           Am      Amsus2 Amsus4
  Espacios en color violeta
F       G       Am    Amsus2
  ¿en donde estare?

Corte:
e|--------||
b|--------||
g|--------||
d|--------||
a|-----0--||
E|0-3-----||

Puente:
(igual a la intro)

Am9     Fm9   Em
No es vertigo...
Am9     Fm9   Em
No es vertigo...
Am9     Fm9   Em
No es vertigo...
Am9     Fm9   Em
No es vertigo...

Fm9     Em    Fm9    Em
No quiero... mirar...
Fm9     Em    Fm9
No quiero... mirar... hacia abajo...

e|----------|------|-----------||
b|----------|------|-----------||
g|----------|------|-----------||
d|-(3)------|------|-----------||
a|-(5)---(3)|-(2)--|-----------||
E|----------|------|-(4)--0-3--||

Solo:
Guitarra 1 (Acústica):
Base:
e|-----------------------------|
b|-----------------------------|
g|-2-2--2--2--2--2--2-2-2------|
d|-2-2--2--2--0--0--2-2-2------|
a|-0-0--3--3--0--0--0-0-0------|
E|-------------------------0--3|

Estribillo:
F        G          Am   Amsus2 Amsus4
  No es facil recordar promesas
F       G       Am    Amsus2
  ¿en donde estare?
F    G           Am      Amsus2 Amsus4
  Espacios en color violeta
F       G       Am    Amsus2
  ¿en donde estare?
Suggest correction
Give kudos to tab author, rate the tab!
1 2 3 4 5
comments
print report bad tab
guest
You may want to rate the tab now too:
select rating
Wanna post a correction for this tab? Suggest correction