Oops, an error
Loading. Please wait.
389 views 3 this week
no commentswrite comment
1 2 3 4 5
2 more votes to show rating
add to favorites
launch autoscroll
font size
0
reset
how to read this tab
guitar tuner
×
Best way to learn
"Martes"
Autoscroll
slow
fast
+/-
esc
set tempo
stop
Intro:
[Riff 1]
  D#    D#m    F7
e|--3---2-----|-5--6--|
b|4-------4---|-4--8--|
g|----------3-|-5--8--|
d|------------|-------|
a|------------|-------|
E|------------|-------|
                ^  ^

Estrofa 1:
(sobre Intro)
No lo quisiste pero diste con fuego
es poderosa la propiedad
las fantasias recurren lamentos
si fuiste mía, siempre serás

Estribillo:
(con el contrabajo adaptado para la guitarra)
   G#m   G#m/Bb   G#m/B      G#m         B
e|----------------------------------|--|---||
b|-------------------------------4--|--|---||
g|----4-------4--------4-------4--4-|--|---||
d|--6--6----6--6-----6--6-----------|x3|---||
a|--------------------------6-------|--|-2-||
E|4-------6-------7-----------------|--|---||

G#m     (Bb)   (B)      G#m
Descúbrete y respira profundo
G#m          (Bb)     (B)       G#m
los thés para tres no esconden futuro
G#m          (Bb)          (B)       G#m
y el mundo no acaba si el hombre hace muros
B
sin Sol...

Sigue:
[Riff 2]
  D#  D#m
e|-3--2-----|-5--6-------|--||
b|-4----4---|-4----10----|--||
g|-3------3-|-5-------8--|x2||
d|----------|------------|--||
a|----------|------------|--||
E|----------|------------|--||

Estrofa 2:
(sobre riff 2)
Lo tuyo es mío y el tiempo es etéreo
fácil hablar antes que hacer
y el principito no hizo al amigo
para dejarlo desaparecer

Estribillo:
(igual)
Descubrete y respira profundo
los thés para tres no esconden futuro
y el mundo no acaba si el hombre hace muros
sin Sol...

Corte:
   E       D#m           F#          B           C#
e|----||------2-----|-----2-----|----------|-----------|--||
b|----||--------4---|-------2---|----------|------6----|--||
g|----||----3-----3-|---3-----3-|-------4--|--------6--|--||
d|----||-1----------|-----------|---(4)----|----6----6-|x2||
a|----||------------|-----------|2---------|-(4)-------|--||
E|-(0)||------------|-2---------|----------|-----------|--||

Puente:
D#m          F#
Despegarse cuesta
B            C#
romper contra piedras
D#m          F#
cúbreme de hiedras
B            C#
definir a ciegas

D#m      F#
No sé si soy
B        C#
o si te pertenezco
D#m      F#
y no sé si el amor
B        C#
es para mantenerlo
D#m      F#
y sino tengo nada
B        C#
¿Cómo me sostengo?
D#m      F#
y no quiero creer
B              C#
que no soy lo que...

debo de entrar en silencio...

Estribillo:
(igual)
Descúbrete y respira profundo
los thés para tres no esconden futuro
y el mundo no acaba si el hombre hace muros
sin Sol la emoción, no respondo al diluvio

Descúbrete y respira profundo
los thés para tres no esconden futuro
y el mundo no acaba si el hombre hace muros
sin Sol...
Suggest correction
Give kudos to tab author, rate the tab!
1 2 3 4 5
comments
print report bad tab
guest
You may want to rate the tab now too:
select rating
Wanna post a correction for this tab? Suggest correction