Oops, an error
Loading. Please wait.
334 views 1 this week
no commentswrite comment
1 2 3 4 5
2 more votes to show rating
add to favorites
launch autoscroll
font size
0
reset
how to read this tab
guitar tuner
×
Best way to learn
"Miércoles"
Autoscroll
slow
fast
+/-
esc
set tempo
stop
Intro:
     Dm      Dm9-11/A   Dm4/A       Em/A
e|---------|---------|----------|----------|
b|----6----|----5----|------6---|-----5----|
g|------7--|------7--|----0---0-|---0---0--|
d|--7-----7|--5----5-|--7------7|-5-------5|
a|5--------|8--------|0---------|0---------|
E|---------|---------|----------|----------|
    Dm      Dm9-11/A    Em/A        Em/A
e|---------|---------|----------|----------|
b|----6----|----5----|-----5----|-----5----|
g|------7--|------7--|---0---0--|---0---0--|
d|--7-----7|--5----5-|-5-------5|-5-------5|
a|5--------|8--------|0---------|0---------|
E|---------|---------|----------|----------|

Estrofa 1:
Dm      Dm9-11/A   Dm4/A       Em/A
         Roto el corazon
Dm      Dm9-11/A   Dm4/A       Em/A
        Silencio, me viste, me viste
Dm      Dm9-11/A   Dm4/A       Em/A
         Nuestro sin pudor
Dm      Dm9-11/A   Dm4/A       Em/A
        Despierto existes, existes

Dm      Dm9-11/A   Dm4/A       Em/A
        Palabras al final
Dm      Dm9-11/A   Dm4/A       Em/A
        Deseo seguirte, seguirte

Puente:
          D#6                  E7
e|---------|---------|---------|---------|
b|---------|---------|---------|---------|
g|----5----|----5----|-----7---|-----7---|
d|--5---5--|--5---5--|---6---6-|---6---6-|
a|6------6-|6------6-|-7------7|-7------7|
E|---------|---------|---------|---------|
          D#6                 G9
e|---------|---------|---------|---------|
b|---------|---------|-----3---|-----0---|
g|----5----|----5----|---2---2-|---2---2-|
d|--5---5--|--5---5--|---------|---------|
a|6------6-|6------6-|-2------2|-2-------|
E|---------|---------|---------|---------|

D#6   E7  D#6    G9
El adios, entre dos
D#6   E7  D#6    G9
El adios, entre dos

Estrofa 2:
(igual)

Calma la ilusion
No es cierto, te quise, te quise
Desde la traicion
Te veo, salirte, salirte
Despidete razon
El ego, decides, decides

Puente:
(igual)

El adios, entre dos
El adios, entre dos


Solo:

Sobre:
e|---------|---||
b|----0----|---||
g|--5---5--|---||
d|-5-----5-|x32||
a|5--------|---||
E|---------|---||


Estrofa 3:
(igual)
Roto el corazon
Silencio, me viste, me viste
Nuestro sin pudor
Despierto existes, existes
No sientas ilusion
Cabeza no realices
Palabras al final
Deseo seguirte, seguirte

Puente:
(igual)

El adios, entre dos
El adios, entre dos
Suggest correction
Give kudos to tab author, rate the tab!
1 2 3 4 5
comments
print report bad tab
guest
You may want to rate the tab now too:
select rating
Wanna post a correction for this tab? Suggest correction