Oops, an error
Loading. Please wait.
290 views 1 this week
no commentswrite comment
1 2 3 4 5
2 more votes to show rating
add to favorites
×
Save as Personal and add changes to this tab that will be seen only by you. Learn more ›
×
You can save this tab as Personal to edit and correct it or add notes. All changes will be seen only by you. Learn more »
save as personal
new!
launch autoscroll
font size
0
reset
how to read this tab
guitar tuner
Autoscroll
slow
fast
+/-
esc
set tempo
stop
Intro:
          C                C              Am               Am
e|3h5-0--------|3h5-0--------------|3h5-0--------|3h5-0--------------|
b|-------5p3---|-------5p3---3h5-3-|-------5p3---|-------5p3---3h5-3-|
g|------------4|-----------4------4|------------4|-----------4------4|
D|-------------|-------------------|-------------|-------------------|
A|-------------|-------------------|-------------|-------------------|
E|-------------|-------------------|-------------|-------------------|

Guitarra:
(repite intro)

C               Am
Eres tan descomunal
                    C
lo serio de tu honestidad
         Am
me hace sonreir

C                        Am
Luces hoy, dioses de la humanidad
               C
juegan con tu voz
                Am
juegan con tu voz


Puente:
     F        Dm6
e|---8---8|----7---7|--|
b|---6---6|----6---6|--|
g|---5---5|----5---5|--|
d|--------|---------|x2|
a|8-------|-5-------|--|
E|--------|---------|--|

F                Dm6
Y en las nubes nadie sabe
F                Dm6
lo que haces para amar asi

(igual que estrofa)
C
Mmhhh mhhh
        Am
Mmhhh mhhh

(x2)

Estrofa 2:
(igual)
C                   Am
Cuanto tiempo faltara
                C
para que pidas un perdon
             Am
y puedas aceptar

C                      Am
Tu razon y un poco de Portugal
            C
son tu corazon...
           Am
son tu corazon...

Puente:
(igual)
F                Dm6
Y en tus manos veo todo
F                Dm6
lo que haces para amar asi

Corte:

e|--3--|--5--|--6--|--8--|--11-10-11--13-11-10/8-8/10-6--|--|
b|-----|-----|-----|-----|-------------------------------|--|
g|-----|-----|-----|-----|-------------------------------|x2|
d|-----|-----|-----|-----|-------------------------------|--|
a|--3--|--5--|--6--|--8--|-------------------------------|--|
E|-----|-----|-----|-----|-------------------------------|--|

          C                    Am
e|--------------------|-------------------|--||
b|---1-------1----1---|-------------------|--||
g|--------------------|---2----2-----2----|--||
d|-----2------2-----2-|-----2----2-----2--|x2||
a|-3-----3-----3-----3|0------0----0----0-|--||
E|--------------------|-------------------|--||


Estribillo:
(igual)
F                Dm6
Un regalo de mis manos
F                Dm6
veo lo que haces para amar asi
Suggest correction
Give kudos to tab author, rate the tab!
1 2 3 4 5
comments
print report bad tab
guest
Wanna post a correction for this tab? Suggest correction