Oops, an error
Loading. Please wait.

Noche No Te Vayas Tab

95 views 1 this week
no commentswrite comment
1 2 3 4 5
3 more votes to show rating
add to favorites
launch autoscroll
font size
0
reset
how to read this tab
guitar tuner
×
Best way to learn
"Noche No Te Vayas"
Autoscroll
slow
fast
+/-
esc
set tempo
stop
   1|------5s7-5--8s10-8--------------------
 ) 2|--4-5----------------------------------
   3|--------------------9------------------
   4|---------------------------------------
 ) 5|---------------------------------------
   6|---------------------------------------
__/


   1|------5s7-5--8s10-8--------------------
 ) 2|--4-5----------------------------------
   3|--------------------8------------------
   4|---------------------------------------
 ) 5|---------------------------------------
   6|---------------------------------------
__/


   1|------5s7-5--8s10-8--------------------
 ) 2|--4-5----------------------------------
   3|--------------------7------------------
   4|---------------------------------------
 ) 5|---------------------------------------
   6|---------------------------------------
__/


   1|------3s5-3--5s7-5---------------------
 ) 2|--2-3--------------2-------------------
   3|---------------------------------------
   4|---------------------------------------
 ) 5|---------------------------------------
   6|---------------------------------------
__/


   1|------5-4-3-2--------------------------
 ) 2|--2-3----------5-4-3-2-5-4-3-2---------
   3|---------------------------------------
   4|---------------------------------------
 ) 5|---------------------------------------
   6|---------------------------------------
__/


Estas son pisadas que tienes que rasguear 3 veces cada una


   1|--0---2---3---5---7---8---10---10------
 ) 2|--1---1---1---5---5---5----8----9------
   3|--0---0---0---5---5---5----7----8------
   4|--2---2---2---5---5---5----7----8------
 ) 5|--0---0---0---5---5---5----7----8------
   6|--x---x---x---x---x---x----x----x------
__/

Arreglo final para comenzar la canción

   1|----10-8-7-8-10--7-10s12-12-12--10-12--
 ) 2|---------------------------------------
   3|---------------------------------------
   4|---------------------------------------
 ) 5|---------------------------------------
   6|---------------------------------------
__/

s= Slide, deslizar

Te amo Daniela! Dedicada a nosotros, que nunca
queremos que se vaya la noche!
Suggest correction
Give kudos to tab author, rate the tab!
1 2 3 4 5
comments
print report bad tab
guest
You may want to rate the tab now too:
select rating
Wanna post a correction for this tab? Suggest correction