Oops, an error
Loading. Please wait.

Mi Compañera Tab

38 views 1 this week
no commentswrite comment
1 2 3 4 5
3 more votes to show rating
add to favorites
×
Save as Personal and add changes to this tab that will be seen only by you. Learn more ›
×
You can save this tab as Personal to edit and correct it or add notes. All changes will be seen only by you. Learn more »
save as personal
new!
launch autoscroll
font size
0
reset
how to read this tab
guitar tuner
Autoscroll
slow
fast
+/-
esc
set tempo
stop
TONO:  E


               E                   C#7              F#m
E--------------------------------------------------------------------|      
A--------------------------------------------------------------------|      
D--------------------------------------------------------------------|
G------3-----------2-----------10----------------11---11---11--------|
B--2p0---0-2-4---0---0-------9----9------12-10-9----9----9----9-10---|
E--------------0-------0-4-7--------10-9-----------------------------|


              B7                           E
E--------------------------------------------------------------------|
A--------------------------------------------------------------------|
D--------------------------------------------------------------------|
G-----3--------------------------------------------------------------|      
B-2p0---0-2-3-4-3-4--------------------------------------------------|
E-------------------0-2-4-5-4-2-4-5-4-2-4-2-0-2-0-2-0-2-4------------|


               E                   C#7              F#m
E--------------------------------------------------------------------|      
A--------------------------------------------------------------------|      
D--------------------------------------------------------------------|
G------3-----------2-----------10----------------11---11---11--------|
B--2p0---0-2-4---0---0-------9----9------12-10-9----9----9----9-10---|
E--------------0-------0-4-7--------10-9-----------------------------|
      


          A         B7    E                 B7
E--------------------------------------------------------------------|      
A--------------------------------------------------------------------|
D--------------------------------------------------------------------|
G------------------------------------2-2-----------------------------|
B--2p0-2-------------0-0-------------------------4-4-----------------|
E--------5-5-4-4-2-2-----4-4-2-2-0-0-----2-2-0-0---------------------|


                E
E--------------------------------------------------------------------|
A--------------------------------------------------------------------|
D--------------------------------------------------------------------|
G---------------------------3-2-1------------------------------------|
B--4--------------4---0-2p0------------------------------------------|
E----0-2-4p2----0---0------------------------------------------------|


       E    C#7                 F#m
Ven mujer,        regalame un momento

           B7                    E              
quiero hablarte de todo lo que siento

       G         B7          Em                 
tu llegaste a mi vida sin pensarlo

      G             B7          Em                     
te metiste hasta el fondo de mi alma

     Am                Em       
y ya ves me robaste la calma

          F#7                   B7                
y hoy me muero lentamente por tu amor


        E   C#7                  F#m
Quiero ver         en tus ojazos negros

       B7                    E              
si por fin encontre mi compañera

     G           B7          Em                 
compañera de mis penas y alegrias

      G         B7          Em                     
mi negrita chiquitita y cariñosa

      Am                Em       
ven mujer regalame un momento

       F#7          B7          E      
a tus pies quiero poner mi corazon


PD: Esta canción esta perfecta, el final del requinto se toca rápido la parte de los ligados.
       Si tienes alguna duda, pregunta, sugerencia o comentario, envíala a mi E-mail

                  angelggomezp@
Suggest correction
Give kudos to tab author, rate the tab!
1 2 3 4 5
comments
print report bad tab
guest
Wanna post a correction for this tab? Suggest correction