Oops, an error
Loading. Please wait.

Abril En Portugal Tab

69 views 21 this week
no commentswrite comment
1 2 3 4 5
3 more votes to show rating
add to favorites
launch autoscroll
font size
0
reset
how to read this tab
guitar tuner
×
Best way to learn
"Abril En Portugal"
Autoscroll
slow
fast
+/-
esc
set tempo
stop
Estribillo:

e.------------------------------------------4--7-9-7-7-5-9-5----
b.-7-5-----5-7----7--5-------7----7-5-----5------------------5--
g.-------6---------------4-7------------6-----------------------
d.-----7---------------6--------------7-------------------------
a.--------------------------------------------------------------
E.--------------------------------------------------------------

e.------------------------------------------4--7-9-7-7-5-9------
b.-7-5-----5-7----7--5-------7----7-5-----5---------------------
g.-------6---------------4-7------------6-----------------------
d.-----7---------------6--------------7-------------------------
a.--------------------------------------------------------------
E.--------------------------------------------------------------


Dm
lusitana
Gm           A7
linda de verdad

dame un beso
              Dm
sera mi felicidad.


Dm
lusitana
Gm          A7
linda de verdad

dame un beso
               D
sera mi felicidad.

                        A7
la vi como una bella flor

de amor primaveral
               D
cerca de mi paso

robo mi corazon
                 A7
aquella tarde azul

bajo el ardiente sol
                  D
de abril en portugal.
Suggest correction
Give kudos to tab author, rate the tab!
1 2 3 4 5
comments
print report bad tab
guest
You may want to rate the tab now too:
select rating
Wanna post a correction for this tab? Suggest correction