Oops, an error
Loading. Please wait.

Mañana Cantaras Tab

21 views 1 this week
no commentswrite comment
1 2 3 4 5
3 more votes to show rating
add to favorites
launch autoscroll
font size
0
reset
how to read this tab
guitar tuner
Autoscroll
slow
fast
+/-
esc
set tempo
stop
Acordes introduccion: LA   MI   LA   MI  RE  DO  MI   LA   MI7   LA

Les dejo la introduccion de esta hermosa cancion.

                 LA                                    MI
 |--0--0--0--0--0--9--0--0--0--0--0--9--7--10--9--7------------------------
 |---------------------------------------------------10--9-----------------
 |-------------------------------------------------------------------------
 |-------------------------------------------------------------------------
 |-------------------------------------------------------------------------
 |-------------------------------------------------------------------------
/


                  MI                                       LA
 |--0--0--0--0--0--10--0--0--0--0--0--10--9--12--10--9---------------------
 |------------------------------------------------------12--10-------------
 |-------------------------------------------------------------------------
 |-------------------------------------------------------------------------
 |-------------------------------------------------------------------------
 |-------------------------------------------------------------------------
/


                 LA                                    MI
 |--0--0--0--0--0--9--0--0--0--0--0--9--7--10--9--7----------------------7-
 |---------------------------------------------------10--9--9--7--9--10----
 |-------------------------------------------------------------------------
 |-------------------------------------------------------------------------
 |-------------------------------------------------------------------------
 |-------------------------------------------------------------------------
/


          RE          DO        MI        LA   MI7  LA
 |--------10----------8--------------------5----0----5---------------------
 |--7--7--7--------5--5---------9----------5----0----5---------------------
 |---------------------------7--7-------6--6----1----6---------------------
 |-----------------------------------------7----0----7---------------------
 |-----------------------------------------7----2----7---------------------
 |-----------------------------------------5----0----5---------------------
/

LA              RE                SI7                        MI
Mañana cantaras una nueva cancion y habra en tu corazon una alegria.

DO#7                     FA#m         MI    RE    SIm   MI
Si a cristo lo pones por delante este mismo mundo veras mejor.

DO#7                     FA#m         MI    RE    MI    LA
Si a cristo lo pones por delante este mismo mundo veras mejor.

LA                 RE                  SI7                         MI
Mañana cantaras si hoy podes creer, que el ya se ha llevado tu tristeza.

DO#7                       FA#m      MI    RE        SIm    MI
Si tras ese cristal de las lagrimas, podes verlo tan solo a el.

DO#7                       FA#m      MI    RE        MI     LA
Si tras ese cristal de las lagrimas, podes verlo tan solo a el.

MI                LA                RE                 LA    (LA-LA#-SI)
Yo tambien sufri, yo tambien llore, yo tambien vivi la vida.

SI               LA               RE               LA
Pero estoy aqui, pero sigo en pie y he vendado mis heridas,

DO#7                     FA#m    MI   RE             MI      LA
pues creo en un señor poderoso, leal, grandioso y lo sirvo a el.


Afuera brilla el sol y hay vida para vos
si a Cristo le haces caso en sus demandas
Sus manos pueden mas que las tuyas, veni, no huyas busca su amor.
Sus manos pueden mas que las tuyas, veni, no huyas busca su amor.
Mañana cantaras te digo y se porque, si a el le haces entrega de tu asunto
tu carga es demasiado pesada, que haces? dejala sobre el señor
tu carga es demasiada pesada, que haces? dejala sobre el señor.
Yo tambien sufri, yo tambien llore, yo tambien vivi la vida.
Pero estoy aqui, pero sigo en pie y he vendado mis heridas,
pues creo en un señor poderoso, leal, grandioso y lo sirvo a el.

DO       LA                 LA
Leal, grandioso, lo sirvo a el!!!


(Nota: Mi pequeño aporte para seguir alabando a este grandioso Dios.
Espero les guste. Creo que esta bien, sino despues lo arreglo.)
Suggest correction
Give kudos to tab author, rate the tab!
1 2 3 4 5
comments
print report bad tab
guest
Wanna post a correction for this tab? Suggest correction