Oops, an error
Loading. Please wait.

Se Llamaba Gustavo Tab

20 views 3 this week
no commentswrite comment
1 2 3 4 5
3 more votes to show rating
add to favorites
launch autoscroll
font size
0
reset
how to read this tab
guitar tuner
×
Best way to learn
"Se Llamaba Gustavo"
Autoscroll
slow
fast
+/-
esc
set tempo
stop
A pedido de Jose Samuel.

Punteo de introducion de la cancion "Se Llamaba Gustavo".

Espero que se entienda, les guste y les sea de bendicion.


 |----------------------------------------0------------0------0------------
 |-----0------0------0------1------3------1------------1------1------------
 |-----0------0------0------2------4---------------------------------------
 |-------------------------------------------------------------------------
 |-------------------------------------------------------------------------
 |-------------------------------------------------------------------------
/


 |-------------------------------------------------------------------------
 |---------------------------0------1------3------------3------3-----------
 |------2------2------2------0------2------4------------4------4-----------
 |------4------4------4----------------------------------------------------
 |-------------------------------------------------------------------------
 |-------------------------------------------------------------------------
/


 |-------------------------------------------------------------------------
 |----------------------------------0------1-------------------------------
 |------0------0------0------2------0------2-------------------------------
 |------2------2------2------4---------------------------------------------
 |-------------------------------------------------------------------------
 |-------------------------------------------------------------------------
/


 |------0---0---2---3---0---2-------0--------------------------------------
 |------------------------------3-------1---3---0---1----------------------
 |------------------------------------------------------2---0--------------
 |-------------------------------------------------------------------------
 |-------------------------------------------------------------------------
 |-------------------------------------------------------------------------
/


 |------3-5-3--------------------------------------------------------------
 |---------------3-5-3-----------------------------------------------------
 |------------------------4-5-4----0-2-0-----------------------------------
 |-------------------------------------------------------------------------
 |-------------------------------------------------------------------------
 |-------------------------------------------------------------------------
/
Suggest correction
Give kudos to tab author, rate the tab!
1 2 3 4 5
comments
print report bad tab
guest
You may want to rate the tab now too:
select rating
Wanna post a correction for this tab? Suggest correction