Oops, an error
Loading. Please wait.

Son De La Loma Tab

609 views 6 this week
no commentswrite comment
1 2 3 4 5
3 more votes to show rating
add to favorites
launch autoscroll
font size
0
reset
how to read this tab
guitar tuner
×
Best way to learn
"Son De La Loma"
Autoscroll
slow
fast
+/-
esc
set tempo
stop
INTRO:

|0-------2-------|0------2--------|0------2--------|0---------------|
|----2-------2---|----2---------2-|----2-------2---|----4-3---------|
|----------------|----------------|----------------|----------------|
|----------------|----------------|----------------|----------------|
|----------------|----------------|----------------|----------------|
|----------------|----------------|----------------|----------------|


|2-------4-------|2-----4---------|2-------4-------|2-1-0-----------|
|----3-------3---|----3---------3-|----3-------3---|----------------|
|----------------|----------------|----------------|----------------|
|----------------|----------------|----------------|----------------|
|----------------|----------------|----------------|----------------|
|----------------|----------------|----------------|----------------|


|0-------2-------|0------2------0-|3---2-----------|--------------2-|
|----2-------2---|----2-------2---|--------2---3---|----------0-3---|
|----------------|----------0-----|----------------|----------------|
|----------------|----------------|----------------|----------------|
|----------------|----------------|----------------|----------------|
|----------------|----------------|----------------|----------------|
                                                      C2-------------
                                                      |
|4-----4-----2---|--0-------------|----------------|--5-------------|
|----------------|------------3---|--2---------0---|--2-------------|
|--------2-----1-|------1---------|--------------2-|--2-------------|
|----------------|--------4-----2-|------2-0-------|--2-------------|
|----------------|----------------|----------------|----------------|
|----------------|----------------|----------------|----------------|


.........


|--5-------7-----|--7-------9-----|--9-------10----|--10------9-----|
|5-----5-5-------|5-----5-5-------|5-----5-5-------|5-----5-5-------|
|----------------|----------------|----------------|----------------|
|----------------|----------------|----------------|----------------|
|----------------|----------------|----------------|----------------|
|----------------|----------------|----------------|----------------|


|--9-------7-----|--7-------5-----|-5--------------|----------------|
|5-----5-5-------|5-----5-5-------|-2--------------|----------------|
|----------------|----------------|-2--------------|----------------|
|----------------|----------------|-2--------------|----------------|
|----------------|----------------|----------------|----------------|
|----------------|----------------|----------------|----------------|


...........


|4-4-7--5-4---7--|4-4-7--5-4---7--|--4-7-10-9-12-10|14-9-12-9-10-9-12
|-----------7----|-----------7----|5---------------|----------------|
|----------------|----------------|----------------|----------------|
|----------------|----------------|----------------|----------------|
|----------------|----------------|----------------|----------------|
|----------------|----------------|----------------|----------------|

                                                                    E7
|9-10-9-7-5-4----|--4-7-5-4---7---|--4-7-5-4---7---|12-10-9-7-5-4-2-|
|-------------5--|5---------7-----|5---------7-----|----------------|
|----------------|----------------|----------------|----------------|
|----------------|----------------|----------------|----------------|
|----------------|----------------|----------------|----------------|
|----------------|----------------|----------------|----------------|
Suggest correction
Give kudos to tab author, rate the tab!
1 2 3 4 5
comments
print report bad tab
guest
You may want to rate the tab now too:
select rating
Wanna post a correction for this tab? Suggest correction