Oops, an error
Loading. Please wait.

Sin Tu Ángel Chords

79 views 1 this week
no commentswrite comment
1 2 3 4 5
3 more votes to show rating
add to favorites
launch autoscroll
font size
0
reset
transpose
0
reset
display chords
guitar tuner
×
Best way to learn
"Sin Tu ángel"
Autoscroll
slow
fast
+/-
esc
set tempo
stop
Esta canción lleva wha-wha, se puede hacer sin
el pero no queda tan bien. La canción menos en
el estribillo lleva de ritmo un arrastre(1),
y cada tanto hace un pique(3).
El intro se los dejo abajo.

Intro

                   (1)                  (1)
Se despierta en la noche, se pinta los labios,
            (1)                   (1)   (3)
se pone los tacos, y la calle a yirar.
                (1)                (1)
Sola en la madrugada, se detiene un auto,
              (1)                  (1)    (2)
solo una pregunta, y todo vuelve a empezar.
A        G          F#                E
Y la noche te sorprende, sin tu ángel ahí atrás.


                 (1)                 (1)
Julio sale a la calle, la noche está buena,
                 (1)                    (2)
la fábrica está cerca, pero hoy no va a llegar.

Aguantando en la esquina, el fierro está cargado,

la sangre caliente, algún palomo caerá.

Y la noche, te sorprende, sin tu ángel ahí atrás.

Intro(la primer mitad)

A        G
Y la noche te sorprende.

Solo: yo lo hago con el wha-wha y en la escala de La

 Hasta el ?(2)? no hay guitarra
Jhonny vive en el sexto whisky en la mañana no hay ninguna
                           (2)
dama, creo que hoy quiere volar.
                    (1)                    (1)
No hay espejo que alcance, el balcón está cerca,
                  (1)                (2)
el cemento está fresco todo va a terminar.
A        G           F#                 E
Y la noche, te sorprende, sin tu ángel ahí atrás.
A        G      F#            E
Y la noche, te sorprende, sin tu ángel.


Intro:

6|--------------------------------------3>2-0------
5|----------------------2-----------2>0------------
4|------------2>0-0-1-2---0-1>2-1>0----------------
3|--3>2>0-2>0--------------------------------------
2|-------------------------------------------------
1|-------------------------------------------------

6|--------------------------------------3>2-------
5|----------------------2-----------2>0-----------
4|------------2>0-0-1-2---0-1>2-1>0---------------
3|--3>2>0-2>0-------------------------------------
2|--------------------------------------------3/5-
1|------------------------------------------------

El "/" es un arrastre

El ">" es un ligado

(1) es el arrastre que lo hace en esta posición:

6|---------------
5|---------------
4|--------------- lo arrastra mas o menos hasta
3|-----7--------- el segundo traste
2|-----8---------
1|-----7---------

(3) hace un pique con dos notas:

En la 5ta el Re y Mi. Hace varias veces Re y termina con el MI.

 Gracias
Cualquier duda mi mail es santiagogarcia328@
Suggest correction
Give kudos to tab author, rate the tab!
1 2 3 4 5
comments
print report bad tab
guest
You may want to rate the tab now too:
select rating
Wanna post a correction for this tab? Suggest correction