Oops, an error
Loading. Please wait.

Al Descenso Tab

14 views 1 this week
no commentswrite comment
1 2 3 4 5
3 more votes to show rating
add to favorites
launch autoscroll
font size
0
reset
how to read this tab
guitar tuner
Autoscroll
slow
fast
+/-
esc
set tempo
stop
  Riff A
e|--------------------------------------------------------------------|
B|--------------------------------------------------------------------|
G|----------------------------5--3------------------------------------|
D|----------------------------5--3------------------------------------|
A|--5--5---------3-1---5--5----------5--5---------3-1---5--5----------|
E|--3--3---0-3p0-------3--3----------3--3---0-3P0-------3--3---0-1-2--|

 Con Riff A
|---------------------------------------------------------------------|
|-------------------------------13b13brp11--11------------------------|
|5brp3---3---------3----------------------12--12-12~~12-12-10---------|
|------5---5-3-5-5---5-5-3------------------------------------12------|
|--------------------------5-------------------------------------10~~~|
|----------------------------3~~--------------------------------------|

Ya no hay ascensos a primera.  C5                    D#5
  ¿Cuánto guardo para mí?
                         C5
  No hubo sangre en la final.
                 D#5  F5
  Nada dura para siempre.

   C5              D#5        C5             D#5   F5
|------------------------------------------------------|
|------------------------------------------------------|
|--------5---------------8------------5----------------|
|--5-------5-------8-------8--5---------5-----8----10--|
|--3---------------6----------3---------------6-----8--|
|--3---------------6----------3---------------6-----8--|


Tanta luz inunda mi escenario.  C5                  D#5
  ¿Cuánto guardo para mí?
                       C5
  No hubo sangre en la final.
            D#5  F5       D5
  Nada dura para siempre, ya no guardo más.


GG G5                G5 C5 C5                           G5   C5   D5
      Solté al dolor          y me mandé.           4|-------5----7--|
C5 G5 G5                    G5 C5             D5    5|--5----3----5--|
      Quise cruzar el puente y me quedé en la B.    6|--3------------|


Solo: [D5-E5VII-C5]x8
      Riff A


FIN: C5-Bb5-G5
Suggest correction
Give kudos to tab author, rate the tab!
1 2 3 4 5
comments
print report bad tab
guest
You may want to rate the tab now too:
select rating
Wanna post a correction for this tab? Suggest correction