Oops, an error
Loading. Please wait.

Carne De Cañón Tab

9 views 1 this week
no commentswrite comment
1 2 3 4 5
3 more votes to show rating
add to favorites
launch autoscroll
font size
0
reset
how to read this tab
guitar tuner
×
Best way to learn
"Carne De Cañón"
Autoscroll
slow
fast
+/-
esc
set tempo
stop
Riff A
|---------------------------------------------------------------------|
|---------------------------------------------------------------------|
|---------------------------------------------------------------------|
|-----------------------------------------------------------7---------|
|-------2--2-----------2--2-----------2--2------------------5----7----|
|--3P0--0--0----0-3P0--0--0----0-3P0--0--0----0-3P0--3P0---------5----|

Riff B
|-----------------------------------------------------------------|
|-----------------------------------------------------------------|
|-----------------------------------------------------------------|
|-----------------------------------------------------------------|
|-------2--2-----------2--2-----------2--2----2-------------------|
|--3P0--0--0----0-3P0--0--0----0-3P0--0--0----0-------------------|

Riff C
|-----------------------------------------------------------------|
|-----------------------------------------------------------------|
|-----------------------------------------------------------------|
|-----------------------------------------------------------------|
|-------2--2-----------2--2-----------2--2-------------------2-2--|
|--3P0--0--0----0-3P0--0--0----0-3P0--0--0----0-3P0--------0-0-0--|

Riff D
|-------------------------------------------------------|
|-------------------------------------------------------|
|-------------------------------------------------------|
|--7----------2-----------------------------------------|
|--5----------0----0--2--3----3--2--0-------------------|
|--------------------------------------3---2-3-2-3-2-0--|

Riff E
|-------------------------------------------------------|
|-------------------------------------------------------|
|-------------------------------------------------------|
|-------------------------------------------------7-----|
|-------2--2------5----2--2----2------------------5--7--|
|--3P0--0--0----0-3P0--0--0----0---------------------5--|


INTRO: Riff A, Riff B, [Riff A]x2


Poco me puede importar la carne entre tierra y cielo.   [Riff A]
La suerte se te va a bajar en una esquina cualquiera.   [Riff C]

Siento tener que avisarte que acá está todo muy mal.    [Riff D]
Mal.                                                    [Riff C]
No tiene precio el silencio cuando no existen salidas.  [Riff D]
                                                        [Riff A]
Un avión a otro lugar. Otro cambio de bandera.          [Riff E]
El mundo te puede albergar donde no quiere estar nadie. [Riff C]

E5VII  D5       B5              Riff
Sé que nada más soy carne entre tierra y cielo.
E5VII  D5       B5
Sé que nada más soy carne de cañón.

 Riff
|----------------------------|
|----------------------------|
|----------------------------|
|----------------------------|
|--0--2--3----2-0---0--------|
|-----------------3---3-2-0--|

[Riff B]

SOLO
                                                     x4
||---------------------------------------------------||
||---------------------------------------------------||
||---------------------------------------------------||
||---------------------------------------------5-----||
||-------2--2-----------2--2-----------2--2----3-----||
||--3P0--0--0----0-3P0--0--0----0-3P0--0--0----------||


Despues se empiesa a repetir todo denuevo hasta
llegar al final que hace este punteo:

||--------------------------------------------------------||
||--------------------------------------------------------||
||--------------------------------------------------------||
||-12--14/12--11\12--14/12--11/12\11----9----7----6-------||
||-----------------------------------------------------5--||
||--------------------------------------------------------||
Suggest correction
Give kudos to tab author, rate the tab!
1 2 3 4 5
comments
print report bad tab
guest
You may want to rate the tab now too:
select rating
Wanna post a correction for this tab? Suggest correction