Oops, an error
Loading. Please wait.

El Monstruo De 2 Cabezas Tab

20 views 1 this week
no commentswrite comment
1 2 3 4 5
3 more votes to show rating
add to favorites
launch autoscroll
font size
0
reset
how to read this tab
guitar tuner
Autoscroll
slow
fast
+/-
esc
set tempo
stop
Help us to improve Ultimate-Guitar.com Take our survey!
×
INTRO: D#5, E5, D#5, F5, D#5, E5, B5
       D#5, E5, D#5, F5, D#5, E5, Cambio

 Cambio
|--------------------------|
|--------------------------|
|--------------------------|
|--6--4-----4--------------|
|--------6-----6--4-----2--|
|--------------------4-----|

 Riff A
|-------------------------------------------------------------|
|-------------------------------------------------------------|
|-------------------------------------------------------------|
|------------------------------2------------------------------|
|-4--4p2-4p2-----------------2---4--4p2-4p2-------------------|
|------------4-2~~-0-2p0-2h4----------------4-2~~-0-2p0-2h4~~-|

|-------------------------------------------------------------|
|-------------------------------------------------------------|
|-------------------------------------------------------------|
|------------------------------2------------------------------|
|-4--4p2-4p2-----------------2---4--4p2-4p2-------------------|
|------------4-2~~-0-2p0-2h4----------------4-2~~~~~~~~~~~~~~-|


C#5            A5
Ahora ya no sé quién
     F#5
se subió en este tren.
C#5                       A5
No sé qué es lo que hace aquí.    D|--------------2---------|
         F#5          C#5
Algo vuelve a pasar
A5                F#5
lo veo entrar, sentarse frente a mí.
C#5
Sé que también soy él
A5                F#5
pero esta vez no quiero caer.
                                                             x2
||-----------------------------------------------------------||
||-----------------------------------------------------------||
||-----------------------------------------------------------||
||-----------------------------------------------------------||
||-4p2---2-4p2----4-p2---2-4p2------------4--2---------4/(6)-||
||-----4-------4-------4---------2p0-2p0--2--0--0h2p0--2/(4)-||


A5               G#5
Juego a quién es quién.
            A5
No puedo ganar.
             B5        C5
Yo no sé por qué.


[C/Riff A]
No entro en mí.
No entro en él.
No es un reflejo.


Sobre mis hombros son dos
Hablan con la misma voz.
Pienso y siento como él
y me odia como yo.
Algo vuelve a pasar
me mira fijo y se ríe de mí.
Sé que también soy él
pero esta vez no quiero caer.
También soy él.


A5               G#5
Juego a quién es quién. No puedo más.
D#5 B5 B5 A5
Voy a perder.


*********************************************************
El resto es prestar un poco de atencion porque los riff
ya estan scritos. De a poco voy a ir subiendo el resto
de los tabs de los TC porque los tengo que pasar y me da
mucha fiaca xDD
El que quiera corregir algo que me mande un mail o que
suba su tab, salu2!
Suggest correction
Give kudos to tab author, rate the tab!
1 2 3 4 5
comments
print report bad tab
guest
You may want to rate the tab now too:
select rating
Wanna post a correction for this tab? Suggest correction