Oops, an error
Loading. Please wait.

Perdimos Tab

25 views 3 this week
no commentswrite comment
1 2 3 4 5
3 more votes to show rating
add to favorites
launch autoscroll
font size
0
reset
how to read this tab
guitar tuner
×
Best way to learn
"Perdimos"
Autoscroll
slow
fast
+/-
esc
set tempo
stop
INTRO: [Riff A]x3
       [Cambio A]

   Cerraron el juego. Estamos perdidos.            [Riff A]x2
   Después del diluvio vino la tempestad.          [Riff B]x2
   Sin haber peleado estamos malheridos.           [Riff A]x2
   No paramos de sangrar. No paramos de sangrar.   [Riff C, Riff A, Riff C, E5VII]
                                                   [Riff A, Cambio A]
   Quedamos en manos de enfermos confundidos.      [Riff A, Cambio B]
   Apuntan al bulto y tiran a matar.               [Riff B]x2
   Hicieron de todo y es la tierra de nadie.       [Riff A]x2
   Y no paro de sangrar. No paramos de sangrar.    [Riff C, Riff A, Riff C, E5VII]
                                                   [Riff A, Cambio A]
   ¿Acaso compraste que estábamos unidos?          [Riff A, Cambio B]
   No hay nada más fácil que salir a gritar.       [Riff B]x2
   Mastico la frase 'ni perdón ni olvido'.         [Riff A]x2
   Y no paro de sangrar. No paramos de sangrar.    [Riff C, Riff A, Riff C, E5VII]
                                                   [Riff A]x2
   Y no paro de sangrar. No paramos de sangrar.    [Riff C]x2
   No paramos de sangrar.                          [Riff C, A5]


 Riff A                         Riff B             Riff C
|----------------------------| |----------------| |-------------|
|-----------7~~~-------------| |----------------| |-------------|
|-----7-5---7~~~----7--5-----| |-----7--5-------| |-------------|
|-----7-5-----------7--5---7-| |-----7--5-------| |-7---5-------|
|-0-0-----------0-0--------7-| |-0-0------------| |-5---3---5---|
|----------------------------| |----------------| |---------3---|

 Cambio A
|---------------------------------------|
|-----------7~~~------------------------|
|-----7-5---7~~~----7-5-----------------|
|-----7-5---------------7--7-5----------|
|-0-0-----------0-0------------7--7-5---|
|-------------------------------------7-|

 Cambio B
|-----------------------------------|
|-----------7~~~--------------------|
|-----7-5---7~~~--------------------|
|-----7-5---------------------------|
|-0-0-----------0-0--2-2--3-3--4-4--|
|-----------------------------------|
Suggest correction
Give kudos to tab author, rate the tab!
1 2 3 4 5
comments
print report bad tab
guest
You may want to rate the tab now too:
select rating
Wanna post a correction for this tab? Suggest correction