Oops, an error
Loading. Please wait.

Viajando En Mí Tab

6 views 1 this week
no commentswrite comment
1 2 3 4 5
3 more votes to show rating
add to favorites
×
Save as Personal and add changes to this tab that will be seen only by you. Learn more ›
×
You can save this tab as Personal to edit and correct it or add notes. All changes will be seen only by you. Learn more »
save as personal
new!
launch autoscroll
font size
0
reset
how to read this tab
guitar tuner
Autoscroll
slow
fast
+/-
esc
set tempo
stop
INTRO: B5-C5


Si un rincón de fe hay en mí no sé adónde está.
Si no puedo ver con tus ojos yo no tengo la culpa.


|---------------------------------------------------------------------|
|---------------------------------------------------------------------|
|14b--r--12-11-11h12p11-------14b--r--11h12p11------------------------|
|-----------------------12~~12-----------------12~~9h10p9-5~~4/(2)-2--|
|---------------------------------------------------------------------|
|---------------------------------------------------------------------|

   Em                          Csus2
|-----------7-------------7------------------------------|
|-----------7-------------7-------------3-------------3--|
|--------9-------------9-------------5-------------5-----|
|-----9-------------9-------------5-------------5--------|
|--7-------------7-------------3-------------3-----------|
|--------------------------------------------------------|


Em                       Csus2
Ilusiones mil, sueños de cristal que hoy no están.
Em                        Csus2
Sin saber qué hacer corro más y más. No quiero escaparme.
G Dsus4/F# Em      C         G Dsus4/F# Em      C
Si no me   das tus alas no sabré al fin dar un salto y volar.


Base: [Em-Csus2]x2
|----------------------------------------------------------------|
|----------------------------------------------------------------|
|14b--r---11h12p11-------14b--r--11h12p11------------------------|
|------------------12~~12-----------------12~~9h10p9-5~~4/(2)-2--|
|----------------------------------------------------------------|
|----------------------------------------------------------------|


Em                        Csus2
Y empezó a girar todo al 22. Rueda la vida.
Em                    Csus2
Adónde estarás. Ya no corras más. No puedo escaparme.


  G                Dsus4/F#          Em                C
|-------3----------------3-------------------0-----------------0-------|
|-----------3----------------3---------------0-----------------1-------|
|-------------0--------2-------2-------------0-------------0---0-------|
|-----0---------0----0-----------0-------2---------------2-------------|
|---2----------------------------------2---------------3---------------|
|-3----------------2-----------------0---------------------------------|

Si no me das tus alas no sabré al fin dar un salto y volar.
Quizás no hay adónde ir, quizás no sé cómo seguir.
Quizás de pie vuelva a caer. Quizás no sé, pero sabré.


|--------------------------------------------------|
|--------------------------------------------------|
|-14b--14b-r-12-11-11h12p11------11h12p11----------|
|---------------------------12~~----------12~~--14-|
|--------------------------------------------------|
|--------------------------------------------------|

|---------------------------------------------------------|
|---------------------------------------------------------|
|-14b  14 14 14    14r-12-11-11h12p11------11h12p11-------|
|-------------------------------------12~~----------12~~--|
|---------------------------------------------------------|
|---------------------------------------------------------|

  Base                                                         X2
||-------------------------------------------------------------||-------------|
||-------------------------------------------------------------||-------------|
||-------------------------------------------------------------||-------------|
||-------------------------------------------------------------||-------------|
||-7p5-7p5-7p5-7---7p5-7p5-7p5-7--3p2-3p2-3p2-3--3p2-3p2-3p2-3-||-2H3p2-3p2---|
||-------------------------------------------------------------||-----------3-|


SOLO: [E5-C5]x4, C5

|---------12-14-15--14--12-----------------------------------|
|-15b----------------------15-12~~~--12h13p12-10~~-12~~---12-|
|------------------------------------------------------------|
|------------------------------------------------------------|
|------------------------------------------------------------|
|------------------------------------------------------------|
             Empiesa asi... cuando lo termine de sacar lo subo


G  Dsus4/F#  Em    C          G  Dsus4/F#  Em    C
Sé   que estaré buscando mi lugar   y al final poderme elevar.

Quizás no hay adónde ir. Quizás no sé, pero sabré...
|-------------------------------------------------------|
|-------------------------------------------------------|
|-12--/14--11-/12-----9---------/9--7---------/12-------|
|-------------------------------------------------------|
|-------------------------------------------------------|
|-------------------------------------------------------|

Encontrar respuestas al

final.                                                 Viajando en mi...
|---------------------------------------------------------------|
|---------------------------------------------------------------|
|-11H12-11H12--/14~~~-11H12-11H12--/14~~~-12-11-----------------|
|------------------------------------------------12\(9)~~~~~~~--|
|---------------------------------------------------------------|
|---------------------------------------------------------------|
                                         repetir un par de veces

FINAL: E5
Suggest correction
Give kudos to tab author, rate the tab!
1 2 3 4 5
comments
print report bad tab
guest
Wanna post a correction for this tab? Suggest correction