Oops, an error
Loading. Please wait.

Flor De Primavera Tab

169 views 1 this week
no commentswrite comment
1 2 3 4 5
2 more votes to show rating
add to favorites
launch autoscroll
font size
0
reset
how to read this tab
guitar tuner
×
Best way to learn
"Flor De Primavera"
Autoscroll
slow
fast
+/-
esc
set tempo
stop
INTRO:

E |------9--11--12--11----------9--11--12--9---------------
B |---12---------------------12----------------------------
G |--------------------------------------------------------
D |--------------------------------------------------------
A |--------------------------------------------------------
E |--------------------------------------------------------

E |----------9--11--12--11--9------------------------------
B |--10--12--------------------10--9-----------------------
G |-----------------------------------9--8--9--------------
D |--------------------------------------------------------
A |--------------------------------------------------------
E |--------------------------------------------------------

E |------9--11--12--11----------9--11--12--9---------------
B |---12---------------------12----------------------------
G |--------------------------------------------------------
D |--------------------------------------------------------
A |--------------------------------------------------------
E |--------------------------------------------------------

E |----------9--11--12--11--9------------------------------
B |--10--12--------------------10--------------------------
G |--------------------------------9--9?9--8--8?8s6--6--4--
D |--------------------------------------------------------
A |--------------------------------------------------------
E |--------------------------------------------------------

Al principi els acords són (quan comença a cantar): B,A,E,B
La resta de la canço els acords són: B, F#m7, A, E
Suggest correction
Give kudos to tab author, rate the tab!
1 2 3 4 5
comments
print report bad tab
guest
You may want to rate the tab now too:
select rating
Wanna post a correction for this tab? Suggest correction