Oops, an error
Loading. Please wait.

Barata Y Descontón Tab

62 views 1 this week
no commentswrite comment
1 2 3 4 5
3 more votes to show rating
add to favorites
launch autoscroll
font size
0
reset
how to read this tab
guitar tuner
Autoscroll
slow
fast
+/-
esc
set tempo
stop
esto lo saque con guitarra con cuerdas de nylon en elecrica ha de ser igual o lo mismo
los tome de otro archivo, y los pongo para que tengan todo junto. la neta no estoy muy 
seguro de siertas notas pero confio en que suena parecido, muy parecido a mi gusto

b(segun el numero de ~ 1=1/4 de tono)

e|------3-3---3---7b~-5-3---7b~-5-3---3---------10-10-10-10-|
B|--3/5-----5---5---------5---------5---5---/12-------------|
G|----------------------------------------------------------|
D|----------------------------------------------------------|
A|----------------------------------------------------------|
E|----------------------------------------------------------|

e|-10------------10-10-10-10-10------------10-10-10-10-10-3-|
B|----(10)-10/12----------------(10)-10/12----------------5-|
G|----------------------------------------------------------|
D|----------------------------------------------------------|
A|----------------------------------------------------------|
E|----------------------------------------------------------|

C      F       C      F
Ese valedor sáque los tabacos
C      F              C      F
aunque sean de salva pa? pasar el rato
C      F         C      F
y como este buki no les hizo caso
C      F         C
se la hicieron gacha a punta de guamazos.

F
Una flota re? gandalla se ha manchado con el chavo
C
y fue a traer su banda pa? que le haga el paro:
F                       D7
'Ahí?stan los ojaldras' -decía bien peinado- 
G                                F   C7  B7  Bb7   C   G7
'les caemos por la espalda y los demás por el costado'.

e|-------------10-10-10-10-10---|
B|--(10)-10/12------------------|
G|------------------------------| x 2
D|------------------------------|
A|------------------------------|
E|------------------------------|

F
Al tripas lo dejaron bien servido para un taco, 
C
al greñas a mordidas ya lo despiojaron,
F
el muelas a patadas se quedó chimuelo, 
C
el nenas ya parece muñeca de trapo.

G                   F
Llueven los patines, llueven los trancazos:
G                        F             G      F    C   G7
¡chicles!, ¡bolas!, ¡mecos! ,mira cuanto descalabrado.

e|------3-3---3---7b~-5-3---7b~-5-3---3---------10-------12-------|
B|--3/5-----5---5---------5---------5---5---/12----12-13----13----|
G|----------------------------------------------------------------|
D|----------------------------------------------------------------|
A|----------------------------------------------------------------|
E|----------------------------------------------------------------|

e|------3-3---3---7b~-5-3---7b~-5-3---3---------10-10-10-10-|
B|--3/5-----5---5---------5---------5---5---/12-------------|
G|----------------------------------------------------------|
D|----------------------------------------------------------|
A|----------------------------------------------------------|
E|----------------------------------------------------------|

e|-10------------10-10-10-10-10------------10-10-10-10-10-3-|
B|----(10)-10/12----------------(10)-10/12----------------5-|
G|----------------------------------------------------------|
D|----------------------------------------------------------|
A|----------------------------------------------------------|
E|----------------------------------------------------------|

C      F          C      F
En pleno descontón que llegan los Caguamos
C      F              C      F
qu?es la banda gruesa del otro vecindario.
C      F              C      F
Con palos y cadenas llegaron bien armados
C      F           C
para amachinar a los que están amachinando.

F
Una flota re? gandalla se ha manchado con el chavo
C
y fue a traer su banda pa? que le haga el paro:
F                       D7
'Ahí?stan los ojaldras' -decía bien peinado- 
G                                F   C7  B7  Bb7   C   G7
'les caemos por la espalda y los demás por el costado'.

F
Al callos le tronaron los ojos de pescado,
C
el cuirias ya anda pelas con tanto jicarazo,
F
al burro lo dejaron en el suelo rebuznando,
C
el llanta ya parece globo desinflado.
           G                      F
Llegan los tirantes, llegan granaderos
      G      F      G,  C
y abaratan la colonia a puro macanazo.

Otra vez el intro
           G                      F
Llegan los tirantes, llegan granaderos
      G      F      G,  C
y abaratan la colonia a puro macanazo.

no es romantica pero se la dedico a rosa chisty carolina neri jeje
Suggest correction
Give kudos to tab author, rate the tab!
1 2 3 4 5
comments
print report bad tab
guest
You may want to rate the tab now too:
select rating
Wanna post a correction for this tab? Suggest correction