Oops, an error
Loading. Please wait.

Capitán Caribe Tab

version 2
version 2

Whole song

28 views 1 this week
no commentswrite comment
1 2 3 4 5
3 more votes to show rating
add to favorites
launch autoscroll
font size
0
reset
how to read this tab
guitar tuner
×
Best way to learn
"Capitán Caribe"
Autoscroll
slow
fast
+/-
esc
set tempo
stop
intro:
|----------------------------|
|----------------------------|
|7-7-7-----5-5-5-5-4-5-5-5-5-|
|7-7-7-7---5-5-5-5-4-5-5-5-5-|
|5-5-5-7---3-3-3-3-4-5-5-5-5-|
|------5---------------------|

Andar en moto es lo ke ama....
|---------------------------|
|---------------------------|
|7------9-----12-----11-----|-----|
|x(x16)-x(x8)-x-(x4)-x-(x4)-|     |
|5------7-----10-----9------|     |
|---------------------------|     |
                                  |
y fumar mucha marihuana...        |  (X2)
|---------------------------|     |
|---------------------------|	  |
|7------9-----11-----12-----|     |
|x(x16)-x(x8)-x-(x4)-x-(x4)-|     |
|5------7-----9------10-----|-----|
|---------------------------|

(  M U T E A R )
|----------------------------------------|
|----------------------------------------|
|----------------------------------------|
|5-5-x-5---5-5-x-5---5-5-x-5-5---5-5-x-5-|
|5-5-x-5---5-5-x-5---5-5-x-3-3---5-5-x-5-|
|3-3-x-3---3-3-x-3---3-3-x-3-3---3-3-x-3-|

|-----------|
|-----------|
|-----------|
|5-5-5-5-7~-|
|5-5-5-5-7~-|
|3-3-3-3-5~-|

KOro:
|-----------------------------------------------|
|-----------------------------------------------|
|7----------------------------------------------|
|7(X16)-7------9-----7-----5-------12-11--9-7-5-|
|5------7(X16)-9(X8)-7(X8)-5(X8)----------------|
|-------5------7-----5-----3--------------------|

|------------------|
|------------------|
|7-7-7-----5-5-5-4-|
|7-7-7-7---5-5-5-4-|
|5-5-5-7---3-3-3-4-|
|------5-----------|

Nunka una mina se la gana...
|---------------------------|
|---------------------------|
|7------9-----12-----11-----|-----|
|x(x16)-x(x8)-x-(x4)-x-(x4)-|     |
|5------7-----10-----9------|     |
|---------------------------|     |
                                  |
Y jalar koka lo...                |  (X2)
|---------------------------|     |
|---------------------------|	  |
|7------9-----11-----12-----|     |
|x(x16)-x(x8)-x-(x4)-x-(x4)-|     |
|5------7-----9------10-----|-----|
|---------------------------|

(  M U T E A R )
|----------------------------------------|
|----------------------------------------|
|----------------------------------------|
|5-5-x-5---5-5-x-5---5-5-x-5-5---5-5-x-5-|
|5-5-x-5---5-5-x-5---5-5-x-3-3---5-5-x-5-|
|3-3-x-3---3-3-x-3---3-3-x-3-3---3-3-x-3-|


KOro:
|--------------------------------------------------------------|
|--------------------------------------------------------------|
|7-----------------------------------7-------------------------|
|7(X16)-7------9-----7-----5---------7(x16)-7------9-----7-----|
|5------7(X16)-9(X8)-7(X8)-5(X8)-----5------7(x16)-9(x8)-7(x8)-|
|-------5------7-----5-----3----------------5------7-----5-----|

|------------------|
|------------------|
|7-7-7-----5-5-5-4-|
|7-7-7-7---5-5-5-4-|
|5-5-5-7---3-3-3-4-|
|------5-----------|


SOLO:
|-----------------------------------------------------|
|-----------------------------------------------------|
|-----------------------------------------------------|
|12-11-9-7-5-3-5-7-3---12-11-9-7-5-3-5-7--7-7-9-9-11~-|
|-----------------------------------------------------|
|-----------------------------------------------------|

|-------------------------------------------------------------------------------------|
|7-7-5-5----------------------------------7-7-5-5---------------------------------9~~-|
|--------7-7-6-6-4-4-2-2-4-4-6-4-2-4-6------------7-7-6-6-4-4-2-2-4-4-6---4-6-6-7-----|
|-------------------------------------------------------------------------------------|
|-------------------------------------------------------------------------------------|
|-------------------------------------------------------------------------------------|

( M U T E A R )
|-----------|
|-----------|
|6-7--7-6---|(X8)
|---------7-|
|-----------|
|-----------|


|-----------|
|-----------|
|6-7--7-6---|(X4)
|---------7-|
|-----------|
|-----------|

|--------------|
|--------------|
|6-7--7-6-7-9~-|
|--------------|
|--------------|
|--------------|


KOro:
|---------------------------------|
|---------------------------------|
|7--------------------------------|(x2)
|7(X16)-7------9-----7-----5------|
|5------7(X16)-9(X8)-7(X8)-5(X8)--|
|-------5------7-----5-----3------|

|-------------------------------------|
|-------------------------------------|
|----------------------------7-7-7----|
|12-11-9-7-5~---12-11-9-7-5--7-7-7-7~~|
|----------------------------5-5-5-7~~|
|----------------------------------5~~|


TENGAN KUIDADO EN EL SOLO ''ESKUCHEN BIEN MUY BIEN''  ;)
la segunda guitarra sakenla del primer tab de kapitan karibe.(ES RE FACIL)
PD: (este tab no es kompletamente obra mia, fue de ayudaun pokito el primer tab
de kapitan karibe.)
 MI MAIL KUALKIER KOSA....    NARROPARK@
Suggest correction
Give kudos to tab author, rate the tab!
1 2 3 4 5
comments
print report bad tab
guest
You may want to rate the tab now too:
select rating
Wanna post a correction for this tab? Suggest correction