Oops, an error
Loading. Please wait.

Capitán Caribe Tab

version 3
version 3

Whole song

by Tronic
47 views 1 this week
no commentswrite comment
1 2 3 4 5
3 more votes to show rating
add to favorites
×
Save as Personal and add changes to this tab that will be seen only by you. Learn more ›
×
You can save this tab as Personal to edit and correct it or add notes. All changes will be seen only by you. Learn more »
save as personal
new!
launch autoscroll
font size
0
reset
how to read this tab
guitar tuner
Autoscroll
slow
fast
+/-
esc
set tempo
stop
ya aki ta la primera guitarra ta completa
guitarra 1:

E||-------------------|------------------|----------------------|
B||-------------------|------------------|----------------------|
G||-------------------|------------------|----------------------|
D||--7----------------|------------------|----------7--7--7-----|
A||--7----------------|------------------|----------5--5--5--7--|
E||--7----------------|------------------|-------------------5--|


-------------------------|-----------------------|-----------------------|
-------------------------|-----------------------|-----------------------|
-------------------------|-----------------------|-----------------------|
-------------------------|-----5----5----5----5--|----4----5----5--5--5--|
----7--7--7--7--7--7--7--|--7--3----3----3----3--|----2----3----3--3--3--|
----5--5--5--5--5--5--5--|--5--------------------|-----------------------|


--------------------------|--------------------------|
--------------------------|--------------------------|
--------------------------|--------------------------|
--7--7--7--7--7--7--7--7--|--7--7--7--7--7--7--7--7--|
--5--5--5--5--5--5--5--5--|--5--5--5--5--5--5--5--5--|
--------------------------|--------------------------|


--------------------------|--------------------------|
--------------------------|--------------------------|
--------------------------|--------------------------|
--4--4--4--4--4--4--4--4--|--4--4--4--4--4--4--4--4--|
--2--2--2--2--2--2--2--2--|--2--2--2--2--2--2--2--2--|
--------------------------|--------------------------|


--------------------------|--------------------------|
--------------------------|--------------------------|
--------------------------|--------------------------|
--------------------------|--------------------------|
--5--5--5--5--5--5--5--5--|--5--5--5--5--5--5--5--5--|
--3--3--3--3--3--3--3--3--|--3--3--3--3--3--3--3--3--|


--------------------------|--------------------------|
--------------------------|--------------------------|
--------------------------|--------------------------|
--------------------------|--------------------------|
--7--7--7--7--7--7--7--7--|--7--7--7--7--7--7--7--7--|
--5--5--5--5--5--5--5--5--|--5--5--5--5--5--5--5--5--|


--------------------------|--------------------------|
--------------------------|--------------------------|
--------------------------|--------------------------|
--7--7--7--7--7--7--7--7--|--7--7--7--7--7--7--7--7--|
--5--5--5--5--5--5--5--5--|--5--5--5--5--5--5--5--5--|
--------------------------|--------------------------|


--------------------------|--------------------------|
--------------------------|--------------------------|
--------------------------|--------------------------|
--4--4--4--4--4--4--4--4--|--4--4--4--4--4--4--4--4--|
--2--2--2--2--2--2--2--2--|--2--2--2--2--2--2--2--2--|
--------------------------|--------------------------|


--------------------------|------------------------|--------------------------|
--------------------------|------------------------|--------------------------|
--------------------------|------------------------|--------------------------|
--------------------------|------------------------|--------------------------|
--5--5--5--5--5--5--5--5--|--x--x--5----x--x--5----|--7--7--7--7--7--7--7--7--|
--3--3--3--3--3--3--3--3--|--x--x--3----x--x--3----|--5--5--5--5--5--5--5--5--|


--------------------------|------------------------|------------------------|
--------------------------|------------------------|------------------------|
--------------------------|------------------------|------------------------|
--------------------------|------------------------|------------------------|
--7--7--7--7--7--7--7--7--|--5--5----5--5--5----5--|--7--7----7--7--7----7--|
--5--5--5--5--5--5--5--5--|--3--3----3--3--3----3--|--5--5----5--5--5----5--|


-----------------------|-----------------------|--------------------------|
-----------------------|-----------------------|--------------------------|
-----------------------|-----------------------|--------------------------|
--7--7----7----7--7----|--9--9----9----9--9----|--------------------------|
--5--5----5----5--5----|--7--7----7----7--7----|--5--5--5--5--5--5--5--5--|
-----------------------|-----------------------|--3--3--3--3--3--3--3--3--|


-------------------|-----------------------|-----------------------|
-------------------|-----------------------|-----------------------|
-------------------|-----------------------|-----------------------|
-------------------|--7--7----7----7--7----|-----------------------|
--7----------------|--5--5----5----5--5----|--5--5----5----5--5----|
--5----------------|-----------------------|--3--3----3----3--3----|


-----------------------|-----------------------|-----------------------|
-----------------------|-----------------------|-----------------------|
-----------------------|-----------------------|-----------------------|
-----------------------|--7--7----7----7--7----|-----------------------|
--7--7----7----7--7----|--5--5----5----5--5----|--9--9----9----9--9----|
--5--5----5----5--5----|-----------------------|--7--7----7----7--7----|


-----------------------|-----------------------|-----------------------|
-----------------------|-----------------------|-----------------------|
-----------------------|-----------------------|-----------------------|
-----------------------|-----------------------|--7--7----7----7--7----|
--5--5----5----5--5----|--7--7----7----7--7----|--5--5----5----5--5----|
--3--3----3----3--3----|--5--5----5----5--5----|-----------------------|


-----------------------|-----------------------|-------------------------|
-----------------------|-----------------------|-------------------------|
-----------------------|-----------------------|-------------------------|
-----------------------|-----------------------|--7--7--7----------------|
--9--9----9----9--9----|--5--5----5----5--5----|--5--5--5--7----7--7--7--|
--7--7----7----7--7----|--3--3----3----3--3----|-----------5----5--5--5--|


-------------------------|------------|--------------------------|
-------------------------|------------|--------------------------|
-------------------------|------------|--------------------------|
-----------------5----5--|----5----5--|--7--7--7--7--7--7--7--7--|
--7--7--7--7--7--3----3--|----3----3--|--5--5--5--5--5--5--5--5--|
--5--5--5--5--5----------|------------|--------------------------|


--------------------------|--------------------------|
--------------------------|--------------------------|
--------------------------|--------------------------|
--7--7--7--7--7--7--7--7--|--4--4--4--4--4--4--4--4--|
--5--5--5--5--5--5--5--5--|--2--2--2--2--2--2--2--2--|
--------------------------|--------------------------|


--------------------------|--------------------------|
--------------------------|--------------------------|
--------------------------|--------------------------|
--4--4--4--4--4--4--4--4--|--------------------------|
--2--2--2--2--2--2--2--2--|--5--5--5--5--5--5--5--5--|
--------------------------|--3--3--3--3--3--3--3--3--|


--------------------------|--------------------------|
--------------------------|--------------------------|
--------------------------|--------------------------|
--------------------------|--------------------------|
--5--5--5--5--5--5--5--5--|--7--7--7--7--7--7--7--7--|
--3--3--3--3--3--3--3--3--|--5--5--5--5--5--5--5--5--|


--------------------------|--------------------------|
--------------------------|--------------------------|
--------------------------|--------------------------|
--------------------------|--7--7--7--7--7--7--7--7--|
--7--7--7--7--7--7--7--7--|--5--5--5--5--5--5--5--5--|
--5--5--5--5--5--5--5--5--|--------------------------|


--------------------------|--------------------------|
--------------------------|--------------------------|
--------------------------|--------------------------|
--7--7--7--7--7--7--7--7--|--4--4--4--4--4--4--4--4--|
--5--5--5--5--5--5--5--5--|--2--2--2--2--2--2--2--2--|
--------------------------|--------------------------|


--------------------------|--------------------------|------------------------|
--------------------------|--------------------------|------------------------|
--------------------------|--------------------------|------------------------|
--4--4--4--4--4--4--4--4--|--------------------------|------------------------|
--2--2--2--2--2--2--2--2--|--5--5--5--5--5--5--5--5--|--x--x--5----x--x--5----|
--------------------------|--3--3--3--3--3--3--3--3--|--x--x--3----x--x--3----|


--------------------------|--------------------------|------------------------|
--------------------------|--------------------------|------------------------|
--------------------------|--------------------------|------------------------|
--------------------------|--------------------------|------------------------|
--7--7--7--7--7--7--7--7--|--7--7--7--7--7--7--7--7--|--5--5----5--5--5----5--|
--5--5--5--5--5--5--5--5--|--5--5--5--5--5--5--5--5--|--3--3----3--3--3----3--|


------------------------|-----------------------|-----------------------|
------------------------|-----------------------|-----------------------|
------------------------|-----------------------|-----------------------|
------------------------|--7--7----7----7--7----|--9--9----9----9--9----|
--7--7----7--7--7----7--|--5--5----5----5--5----|--7--7----7----7--7----|
--5--5----5--5--5----5--|-----------------------|-----------------------|


--------------------------|-------------------|-----------------------|
--------------------------|-------------------|-----------------------|
--------------------------|-------------------|-----------------------|
--------------------------|-------------------|--7--7----7----7--7----|
--5--5--5--5--5--5--5--5--|--7----------------|--5--5----5----5--5----|
--3--3--3--3--3--3--3--3--|--5----------------|-----------------------|


-----------------------|-----------------------|-----------------------|
-----------------------|-----------------------|-----------------------|
-----------------------|-----------------------|-----------------------|
-----------------------|-----------------------|--7--7----7----7--7----|
--5--5----5----5--5----|--7--7----7----7--7----|--5--5----5----5--5----|
--3--3----3----3--3----|--5--5----5----5--5----|-----------------------|


-----------------------|-----------------------|-----------------------|
-----------------------|-----------------------|-----------------------|
-----------------------|-----------------------|-----------------------|
-----------------------|-----------------------|-----------------------|
--9--9----9----9--9----|--5--5----5----5--5----|--7--7----7----7--7----|
--7--7----7----7--7----|--3--3----3----3--3----|--5--5----5----5--5----|


-----------------------|-----------------------|-------------------------|
-----------------------|-----------------------|-------------------------|
-----------------------|-----------------------|-------------------------|
--7--7----7----7--7----|-----------------------|--7--7--7----------------|
--5--5----5----5--5----|--9--9----9----9--9----|--5--5--5--7----7--7--7--|
-----------------------|--7--7----7----7--7----|-----------5----5--5--5--|


-------------------------|----|----|----||
-------------------------|----|----|----||
-------------------------|----|----|----||
-----------------5----5--|----|----|----||
--7--7--7--7--7--3----3--|----|----|----||
--5--5--5--5--5----------|----|----|----||
despues se repite lo mismo del coro y aki ta la segunda guitarra
guitarra 2 : no esta completa pero igual se repite

E||--7----------------|------------------|----------------------|
B||--7----------------|------------------|----------------------|
G||--7----------------|------------------|----------------------|
D||-------------------|------------------|----------7--7--7-----|
A||-------------------|------------------|----------5--5--5--7--|
E||-------------------|------------------|-------------------5--|


-------------------------|-----------------------|-----------------------|
-------------------------|-----------------------|-----------------------|
-------------------------|-----------------------|-----------------------|
-------------------------|-----5----5----5----5--|----4----5----5--5--5--|
----7--7--7--7--7--7--7--|--7--3----3----3----3--|----2----3----3--3--3--|
----5--5--5--5--5--5--5--|--5--------------------|-----------------------|


----------------------------------|----------------------------------|
----------------------------------|----------------------------------|
--11--11--11--11--11--11--11--11--|--11--11--11--11--11--11--11--11--|
--x---x---x---x---x---x---x---x---|--x---x---x---x---x---x---x---x---|
--9---9---9---9---9---9---9---9---|--9---9---9---9---9---9---9---9---|
----------------------------------|----------------------------------|


----------------------------------|----------------------------------|
----------------------------------|----------------------------------|
--11--11--11--11--11--11--11--11--|--12--12--12--12--11--11--11--11--|
--x---x---x---x---x---x---x---x---|--x---x---x---x---x---x---x---x---|
--9---9---9---9---9---9---9---9---|--10--10--10--10--9---9---9---9---|
----------------------------------|----------------------------------|


--------------------------|--------------------------|
--------------------------|--------------------------|
--7--7--7--7--7--7--7--7--|--7--7--7--7--7--7--7--7--|
--x--x--x--x--x--x--x--x--|--x--x--x--x--x--x--x--x--|
--5--5--5--5--5--5--5--5--|--5--5--5--5--5--5--5--5--|
--------------------------|--------------------------|


--------------------------|----------------------------------|
--------------------------|----------------------------------|
--9--9--9--9--9--9--9--9--|--11--11--11--11--12--12--12--12--|
--x--x--x--x--x--x--x--x--|--x---x---x---x---x---x---x---x---|
--7--7--7--7--7--7--7--7--|--9---9---9---9---10--10--10--10--|
--------------------------|----------------------------------|


----------------------------------|----------------------------------|
----------------------------------|----------------------------------|
--11--11--11--11--11--11--11--11--|--11--11--11--11--11--11--11--11--|
--x---x---x---x---x---x---x---x---|--x---x---x---x---x---x---x---x---|
--9---9---9---9---9---9---9---9---|--9---9---9---9---9---9---9---9---|
----------------------------------|----------------------------------|


----------------------------------|----------------------------------|
----------------------------------|----------------------------------|
--11--11--11--11--11--11--11--11--|--12--12--12--12--11--11--11--11--|
--x---x---x---x---x---x---x---x---|--x---x---x---x---x---x---x---x---|
--9---9---9---9---9---9---9---9---|--10--10--10--10--9---9---9---9---|
----------------------------------|----------------------------------|


--------------------------|------------------------|--------------------------|
--------------------------|------------------------|--------------------------|
--7--7--7--7--7--7--7--7--|--x--x--7----x--x--7----|--9--9--9--9--9--9--9--9--|
--x--x--x--x--x--x--x--x--|--x--x--x----x--x--x----|--x--x--x--x--x--x--x--x--|
--5--5--5--5--5--5--5--5--|--x--x--5----x--x--5----|--7--7--7--7--7--7--7--7--|
--------------------------|------------------------|--------------------------|


----------------------------------|-------------------|------------------|
----------------------------------|-------------------|------------------|
--11--11--11--11--12--12--12--12--|--x----------------|------------------|
--x---x---x---x---x---x---x---x---|--x----------------|------------------|
--9---9---9---9---10--10--10--10--|--x----------------|------------------|
----------------------------------|-------------------|------------------|


------------------|------------------|------------------|----|
------------------|------------------|------------------|----|
------------------|------------------|------------------|----|
------------------|------------------|------------------|----|
------------------|------------------|------------------|----|
------------------|------------------|------------------|----|


-----------------------|-----------------------|-----------------------|
-----------------------|-----------------------|-----------------------|
-----------------------|-----------------------|-----------------------|
--7--7----7----7--7----|-----------------------|-----------------------|
--5--5----5----5--5----|--5--5----5----5--5----|--7--7----7----7--7----|
-----------------------|--3--3----3----3--3----|--5--5----5----5--5----|


-----------------------|-----------------------|-----------------------|
-----------------------|-----------------------|-----------------------|
-----------------------|-----------------------|-----------------------|
--7--7----7----7--7----|-----------------------|-----------------------|
--5--5----5----5--5----|--9--9----9----9--9----|--5--5----5----5--5----|
-----------------------|--7--7----7----7--7----|--3--3----3----3--3----|


-----------------------|-----------------------|-----------------------|
-----------------------|-----------------------|-----------------------|
-----------------------|-----------------------|-----------------------|
-----------------------|--7--7----7----7--7----|-----------------------|
--7--7----7----7--7----|--5--5----5----5--5----|--9--9----9----9--9----|
--5--5----5----5--5----|-----------------------|--7--7----7----7--7----|


-----------------------|-------------------------|-------------------------|
-----------------------|-------------------------|-------------------------|
-----------------------|-------------------------|-------------------------|
-----------------------|--7--7--7----------------|-----------------5----5--|
--5--5----5----5--5----|--5--5--5--7----7--7--7--|--7--7--7--7--7--3----3--|
--3--3----3----3--3----|-----------5----5--5--5--|--5--5--5--5--5----------|


------------|----------------------------------|
------------|----------------------------------|
------------|--11--11--11--11--11--11--11--11--|
----5----5--|--x---x---x---x---x---x---x---x---|
----3----3--|--9---9---9---9---9---9---9---9---|
------------|----------------------------------|


----------------------------------|----------------------------------|
----------------------------------|----------------------------------|
--11--11--11--11--11--11--11--11--|--11--11--11--11--11--11--11--11--|
--x---x---x---x---x---x---x---x---|--x---x---x---x---x---x---x---x---|
--9---9---9---9---9---9---9---9---|--9---9---9---9---9---9---9---9---|
----------------------------------|----------------------------------|


----------------------------------|--------------------------|
----------------------------------|--------------------------|
--12--12--12--12--11--11--11--11--|--7--7--7--7--7--7--7--7--|
--x---x---x---x---x---x---x---x---|--x--x--x--x--x--x--x--x--|
--10--10--10--10--9---9---9---9---|--5--5--5--5--5--5--5--5--|
----------------------------------|--------------------------|


--------------------------|--------------------------|
--------------------------|--------------------------|
--7--7--7--7--7--7--7--7--|--9--9--9--9--9--9--9--9--|
--x--x--x--x--x--x--x--x--|--x--x--x--x--x--x--x--x--|
--5--5--5--5--5--5--5--5--|--7--7--7--7--7--7--7--7--|
--------------------------|--------------------------|


----------------------------------|----------------------------------|
----------------------------------|----------------------------------|
--11--11--11--11--12--12--12--12--|--11--11--11--11--11--11--11--11--|
--x---x---x---x---x---x---x---x---|--x---x---x---x---x---x---x---x---|
--9---9---9---9---10--10--10--10--|--9---9---9---9---9---9---9---9---|
----------------------------------|----------------------------------|


----------------------------------|----------------------------------|
----------------------------------|----------------------------------|
--11--11--11--11--11--11--11--11--|--11--11--11--11--11--11--11--11--|
--x---x---x---x---x---x---x---x---|--x---x---x---x---x---x---x---x---|
--9---9---9---9---9---9---9---9---|--9---9---9---9---9---9---9---9---|
----------------------------------|----------------------------------|


----------------------------------|--------------------------|
----------------------------------|--------------------------|
--12--12--12--12--11--11--11--11--|--7--7--7--7--7--7--7--7--|
--x---x---x---x---x---x---x---x---|--x--x--x--x--x--x--x--x--|
--10--10--10--10--9---9---9---9---|--5--5--5--5--5--5--5--5--|
----------------------------------|--------------------------|


------------------------|--------------------------|
------------------------|--------------------------|
--x--x--7----x--x--7----|--9--9--9--9--9--9--9--9--|
--x--x--x----x--x--x----|--x--x--x--x--x--x--x--x--|
--x--x--5----x--x--5----|--7--7--7--7--7--7--7--7--|
------------------------|--------------------------|


----------------------------------|-------------------|------------------|
----------------------------------|-------------------|------------------|
--11--11--11--11--12--12--12--12--|--x----------------|------------------|
--x---x---x---x---x---x---x---x---|--x----------------|------------------|
--9---9---9---9---10--10--10--10--|--x----------------|------------------|
----------------------------------|-------------------|------------------|

y aki ta el punteo :


E||----------------------|----------------------|---------------|
B||----------------------|----------------------|---------------|
G||--7----6----4----2----|--0--------------2----|---------------|
D||----------------------|-------4----5---------|--4------------|
A||----------------------|----------------------|---------------|
E||----------------------|----------------------|---------------|


----------------------|----------------------|------------------------|
----------------------|----------------------|------------------------|
--7----6----4----2----|--0--------------2----|------2----4--6----6----|
----------------------|-------4----5---------|------------------------|
----------------------|----------------------|------------------------|
----------------------|----------------------|------------------------|


------------------------|----------------------|-----------------|
------7--7--5--5--------|----------------------|-----------------|
------------------7--7--|--6----4----2----4----|--6----2----2----|
------------------------|----------------------|-----------------|
------------------------|----------------------|-----------------|
------------------------|----------------------|-----------------|


------------------------|----------------------|---------------------|
------7--7--5--5--------|----------------------|---------------------|
------------------7--7--|--6----4----2----4----|--6--------2----4----|
------------------------|----------------------|---------------------|
------------------------|----------------------|---------------------|
------------------------|----------------------|---------------------|


------------|-----------------------|-----------------------|
------------|-----------------------|-----------------------|
--6----6----|--6--7----7----6-------|--6--7----7----6-------|
------------|------------------7----|------------------7----|
------------|-----------------------|-----------------------|
------------|-----------------------|-----------------------|


-----------------------|-----------------------|-----------------------|
-----------------------|-----------------------|-----------------------|
--6--7----7----6-------|--6--7----7----6-------|--6--7----7----6-------|
------------------7----|------------------7----|------------------7----|
-----------------------|-----------------------|-----------------------|
-----------------------|-----------------------|-----------------------|


-----------------------|-----------------------|-------||
-----------------------|-----------------------|-------||
--6--7----7----6-------|--6--7----7----6--7----|--9----||
------------------7----|-----------------------|-------||
-----------------------|-----------------------|-------||
-----------------------|-----------------------|-------||

YA PO CHIQUILLOS NO SE ABURRAN NO MAS JAJAJAJ OJALA EL GUSTO POR
TRONIC SIEMPRE LOS AKOMPAÑE YA XAUUUS
Suggest correction
Give kudos to tab author, rate the tab!
1 2 3 4 5
comments
print report bad tab
guest
Wanna post a correction for this tab? Suggest correction