Oops, an error
Loading. Please wait.

Missis Guiñi Tab

version 2
version 2

Whole song

34 views 1 this week
no commentswrite comment
1 2 3 4 5
3 more votes to show rating
add to favorites
launch autoscroll
font size
0
reset
how to read this tab
guitar tuner
Autoscroll
slow
fast
+/-
esc
set tempo
stop
Help us to improve Ultimate-Guitar.com Take our survey!
×
kada dia no es igual...
|---------------|
|---------------|
|5-5--3-3-------|(x2)
|5-5--3-3--5--6-|
|3-3--1-1--5--6-|
|----------3--4-|

 Frutos para el hogar...
|------------------------|
|------------------------|
|5-----3-----------------|(x2)
|5(x8)-3-----5-----6-----|
|3-----1(x8)-5(x8)-6(x8)-|
|------------3-----4-----|

koro: oiga missis wiñi porke roba ud.? ...
|------------------------------|
|------------------------------|
|5------5/3--------------------|
|X(x11)-5/3(x16)-5------6------|
|3------3/1------5(x16)-6(x16)-|
|----------------3------4------|

Eso hijo mio lo hago para engañar...
|-----------------------------------|
|-----------------------------------|
|-------5/3-------------------3-----|
|6------5/3(x16)-5------3-----3(x8)-|
|6(x12)-3/1------5(x16)-3(x8)-1-----|
|4---------------3------1-----------|

verso: Ke loka la situación...
|------------------------|
|------------------------|
|5-----3-----------------|(x2)
|5(x8)-3-----5-----6-----|
|3-----1(x8)-5(x8)-6(x8)-|
|------------3-----4-----|

Al super le roba montón...
( MUTEAR )
|------------------------|
|------------------------|
|5-----3-----------------|
|5(x8)-3-----5-----6-----|
|3-----1(x8)-5(x8)-6(x8)-|
|------------3-----4-----|
Esto de la jubilación...
(  MUTEAR   )
|-----------||--------|
|-----------||--------|
|5-----3----||--------|
|5(x8)-3----||-5~--6~-|
|3-----1(x8)||-5~--6~-|
|-----------||-3~--4~-|


Koro: oiga missis wiñi porke roba ud?
|------------------------------|
|------------------------------|
|-------5/3--------------------|
|3------5/3(x16)-5------6------|
|3(x11)-3/1------5(x16)-6(x16)-|
|1---------------3------4------|
Eso hijo mio lo hago para engañar...
|-----------------------------------|
|-----------------------------------|
|-------5/3-------------------3-----|
|6------5/3(x16)-5------3-----3(x8)-|
|6(x12)-3/1------5(x16)-3(x8)-1-----|
|4---------------3------1-----------|


..30 mil al mes... (( AKA LA VERDAD NOSE BIEN KE SE ASE PERO ASI SUENA BONITO))
|-------------------------------|
|-------------------------------|
|-5-----7-----8-----3-----5-----|
|-5(x8)-7(x8)-8(x8)-3(x4)-5(x4)-|
|-3-----5-----6-----1-----3-----|
|-------------------------------|

solo:
|-------------------------------------------------------|
|-------------------------------------------------------|
|---------------------------13-15-----------------------|
|5--7-9--3--10-8--12--13-15-------12(X8)-10(X8)-8(X8)-7-|
|-------------------------------------------------------|
|-------------------------------------------------------|


Koro: oiga missis wiñi porke roba ud?
|------------------------------|
|------------------------------|
|-------5/3--------------------|
|6------5/3(x16)-5------6------|
|6(x11)-3/1------5(x16)-6(x16)-|
|4---------------3------4------|

Eso hijo mio lo hago para engañar...
|-----------------------------------|
|-----------------------------------|
|-------5/3-------------------3-----|
|6------5/3(x16)-5------3-----3(x8)-|
|6(x12)-3/1------5(x16)-3(x8)-1-----|
|4---------------3------1-----------|


en ves de rasguear este es el punteito ke ase.
(el punteito final) porsiaka lo kieren...
|-------------------|
|-------------------|
|-5(x8)-7(x4)-8(x4)-|(x4)
|-------------------|
|-------------------|
|-------------------|

TERMINA KON:
|---------------------------|
|---------------------------|
|5-5-7-7-8-8-10-10-12-12-7--|
|---------------------------|
|---------------------------|
|---------------------------|

yapo kualker kosa ami mail   NARROPARK@
Suggest correction
Give kudos to tab author, rate the tab!
1 2 3 4 5
comments
print report bad tab
guest
You may want to rate the tab now too:
select rating
Wanna post a correction for this tab? Suggest correction