Oops, an error
Loading. Please wait.

Missis Guiñi Tab

version 3
version 3

Whole song

by Tronic
31 views 1 this week
no commentswrite comment
1 2 3 4 5
3 more votes to show rating
add to favorites
launch autoscroll
font size
0
reset
how to read this tab
guitar tuner
×
Best way to learn
"Missis Guiñi"
Autoscroll
slow
fast
+/-
esc
set tempo
stop
Esta es una version corregida de las demas, esta 100 % bien(Segun yo)
Espero ke les guste

Intro:

Cada dia no es igual
siempre nos pasan cosas distintas
estamos comprando pan
y una señora guarde en su cartera
e---------------
B---------------
G--8------3--5--
D--x--8---x--x--  x2
A--6--x---1--3--
E-----6---------

Verso:
Productos para el hogar,
salsa de soya, pollo y 7 paltas
nada de esto iba a pagar,
ella se veía decidida.
e----------------------------
B----------------------------
G--8------3--5---8-----3--5--
D--x--8---x--x---x--8--x--x--
A--6--x---1--3---6--x--1--3--
E-----6-------------6--------

Coro:
Oiga misis guiñi porque roba usted
e-----
B-----
G--8--
D--x--
A--6--
E-----


le pregunte!! por su apariencia (pueden tokar la mismas notas en octavas
 usted se ve de gran nivel       para la segunda guitarra en todo el tema)
e----------------   1ª guitarra      e--------------   2ªguitarra
B----------------                    B--------------
G--8-------------                    G--8-----3--5--
D--8--8--5--6----                    D--x--8--x--x--
A--6--8--5--6----                    A--6--x--1--3--
E-----6--3--4----                    E-----6--------

esto hijo mio lo hago para engañar
e----- 1ªguitarra   e----- 2ªguitarra
B-----              B-----
G-----              G-----
D--6--              D--8--
A--6--              A--x--
E--4--              E--6--

y así poder robar
 mi jubilación me paga 30mils
e----------------
B----------------
G--8-------------
D--8--8--5--6--8-
A--6--8--5--6--8-
E-----6--3--4--6-

Verso:
Que loca la situación
 pobre señora Misis Guiñi
 no le queda otra opción
 se disfraza como vieja kuíca
e----------------
B----------------
G--8-------------
D--8--8--5--6---- x2
A--6--8--5--6----
E-----6--3--4----

al súper le roba un montón
y caja paga un kilo de harina
esto de la jubilación hay que
ponerle atención
e----------------------------
B----------------------------
G--8-----3--5----8-----------
D--8--8--3--5----8--8--5--6--
A--6--8--1--3----6--8--5--6--
E-----6-------------6--3--4--

Coro:
Oiga misis guiñi porque roba usted
e-----  1ªGuitarra   e-----  2ªGuitarra
B-----               B-----
G--8--               G--6--
D--x--               D--6--
A--6--               A--4--
E-----               E-----

le pregunte!! por su apariencia
 usted se ve de gran nivel
e----------------
B----------------
G--8-------------
D--8--8--5--6----
A--6--8--5--6----
E-----6--3--4----

esto hijo mio lo hago para engañar
e----- 1ªguitarra   e----- 2ªguitarra
B-----              B-----
G-----              G-----
D--6--              D--8--
A--6--              A--x--
E--4--              E--6--

y así poder robar
 mi jubilación me paga 30mils
e----------------
B----------------
G--8-------------
D--8--8--5--6--8-
A--6--8--5--6--8-
E-----6--3--4--6-

al messsssssssss  30 mils al mes(30 mils al mes)
1ª Guitarra
e---------------
B---------------
G--8------------
D--8--8--5--6---
A--6--8--5--6---
E-----6--3--4---


2ª Guitarra
e-----------------
B-----------------
G--8--10--12--17--
D--x--x---x---x---
A--6--8---10--15--
E-----------------

los 30 mils
1ªGuitarra
e--------------------------
B--------------------------
G--8------------8--5--3--5-
D--8--8--5--6---8--5--3--5-
A--6--8--5--6---6--3--1--3-
E-----6--3--4--------------

2ªGuitarra(hay 2 formas uds. deciden)
Opcion 1
e-------------------------------------------------------------
B-------------------------------------------------------------
G-------------------------------------------------------------
D-------------------------------------------------------------
A--10--12--13------15--13--------------10--12--17--15--13--12-
E--------------13----------10--11--13-------------------------

Opcion 2
e--------------------------------------------------
B--------------------------------------------------
G--5--7--8-----10--8-----------5--7--12--10--8--7--
D--x--x--x--8--x---x--5--6--8--x--x--x---x---x--x--
A--3--5--6--x--8---6--x--x--x--3--5--10--8---6--5--
E-----------6---------3--4--6----------------------

Intermedio


Coro:
Oiga misis guiñi porque roba usted
e-----  1ªGuitarra   e-----  2ªGuitarra
B-----               B-----
G--8--               G--6--
D--x--               D--6--
A--6--               A--4--
E-----               E-----

le pregunte!! por su apariencia
 usted se ve de gran nivel
e----------------   1ª guitarra      e--------------   2ªguitarra
B----------------                    B--------------
G--8-------------                    G--8-----3--5--
D--8--8--5--6----                    D--x--8--x--x--
A--6--8--5--6----                    A--6--x--1--3--
E-----6--3--4----                    E-----6--------

esto hijo mio lo hago para engañar
e----- 1ªguitarra   e----- 2ªguitarra
B-----              B-----
G-----              G-----
D--6--              D--8--
A--6--              A--x--
E--4--              E--6--

y así poder robar
 mi jubilación me paga 30mils
e-----------------  1ª guitarra       e--------------   2ªguitarra
B-----------------                    B--------------
G--8--------------                    G--8-----3--5--
D--8--8--5--6--8--                    D--x--8--x--x--
A--6--8--5--6--8--                    A--6--x--1--3--
E-----6--3--4--6--                    E-----6--------

al messsssssssss  30 mil mi jubilacion me pagaa
1ª Guitarra
e------------------ 1ªguitarra    e--------------2ªguitarra
B------------------               B-------------------------------
G--8---------------               G-------------------------------
D--8--8--5--6------               D--10-10-10-10-10-12-12-13-13--x3
A--6--8--5--6------               A-------------------------------
E-----6--3--4------               E-------------------------------

e-------- 2ªguitarra
B-------------------------
G-------------------------
D--10-10-12-12-13-13-10-10
A-------------------------
E-------------------------

30 mils al messsss....
e----- 1ªguitarra   e----- 2ªguitarra
B-----              B---------------------------------------
G-----              G---------------------------------------
D--5--              D--10-10-12-12-13-13-15-15-17-17-18/12--
A--5--              A---------------------------------------
E--3--              E---------------------------------------

Tronic lo mejor, cualquier consulta o correcion envienla
a dopedvd@
Suggest correction
Give kudos to tab author, rate the tab!
1 2 3 4 5
comments
print report bad tab
guest
You may want to rate the tab now too:
select rating
Wanna post a correction for this tab? Suggest correction