Oops, an error
Loading. Please wait.

Sería Tan Bueno Tab

34 views 1 this week
no commentswrite comment
1 2 3 4 5
3 more votes to show rating
add to favorites
launch autoscroll
font size
0
reset
how to read this tab
guitar tuner
Autoscroll
slow
fast
+/-
esc
set tempo
stop
Help us to improve Ultimate-Guitar.com Take our survey!
×
Seria Tan Bueno!

intro: (sin distorcion)
Hoy keremos trabajar...
|--------------------------------|
|--------------------------------|
|--------------------------------|
|----------7---------------------|
|---7---5------------------------|
|-5---------------7-9---5-7---3-5|

siempre vamos a respetar..
|-------------------------------|
|-------------------------------|
|-------------------------------|
|----------7-------9-----7-----5|
|---7---5--------9-----7-----5--|
|-5------------7-----5-----3----|

(Distorcion)
ke seria de esta ciudad..
|----------------------------|
|----------------------------|
|----------7-7--7-7----------|
|-7-7-7-7--7-7--7-7---9--5--7|
|-7-7-7-7--5-5--5-5---9--5--7|
|-5-5-5-5-------------7--3--5|

piensa un poko mas..
|---------------------------|
|---------------------------|
|--------7------------------|
|-7------7(x8)--9-----5-----|
|-7(x8)--5------9(x8)--5(x8)|
|-5-------------7-----3-----|

(palm mute) Gritale a tu papa..
|-----------------------|
|-----------------------|
|------7----------------|
|-7----5(x8)-9-----5----|(x2)
|-7(x8)------9(x8)-5(x8)|
|-5----------7-----3----|

 Hace lo ke te gusta mas..
|---------------------------------------------------------------|
|---------------------------------------------------------------|
|----------7-7--7-7----------------------7----------------------|
|-7-7-7-7--7-7--7-7---9-9--5-5--7--7-7---7(x8)-9-----7-----5----|
|-7-7-7-7--5-5--5-5---9-9--5-5--7--7-7---5-----9(x8)-7(x8)-5(x4)|
|-5-5-5-5-------------7-7--3-3--5--5-5---------7-----5-----3----|


koro: Y griten...
|--------------------------|
|--------------------------|
|-------7------------------|(x2)
|-7-----5(x6)-9-----5----/7|
|-7(x5)-------9(x5)-5(x5)/7|
|-5-----------7-----3----/5|

kuando las kosas..
|-------------------------------------------|
|-------------------------------------------|
|-------7-----------------------------------|
|-7-----5(x6)-9-----7-----5------7-----9----|
|-7(x5)-------9(x5)-7(x5)-5(x12)-7(x6)-9(x6)|
|-5-----------7-----5-----3------5-----7----|

SOLO: UUUUH..AA.
|-------------------------------------------------------------|
|-------------------------------------------------------------|
|-------------------------------------------------------------|
|7--7-7-7-7-9-4--4-9--7-11-4-----7--7-7-7-7-9-4--4-9--11-7-12~|
|-------------------------------------------------------------|
|-------------------------------------------------------------|

Hace lo ke te gusta mas...:
koro:

despues de este koro viene esto.
palm mute
|----------------------------------------------------------------------|
|0-0-0-0-11--0-0-11--0-0-11--0-0-11--0-11-0-11-0-11-0-11-0-11-0-11-0-11|
|----------------------------------------------------------------------|
|----------------------------------------------------------------------|
|----------------------------------------------------------------------|
|----------------------------------------------------------------------|
koro:
fin!

thank you thank you!!  jaja! ..buena broders..aki les va esta song ke sta 
buenisima la song y la tab ..
kualkier konsulta de sta y otras tab a mi mail
PD.: EN LA TAB DE PITIJUAY  HAY UNOS ERRORES EN EL PUNTEO FINAL 
Y EN EL ARMONIKO ..ASIKE AGREGENME MI MAIL ES
   NARROPARK@
Suggest correction
Give kudos to tab author, rate the tab!
1 2 3 4 5
comments
print report bad tab
guest
You may want to rate the tab now too:
select rating
Wanna post a correction for this tab? Suggest correction