Oops, an error
Loading. Please wait.

Sería Tan Bueno Chords

version 1
version 1

Whole song

40 views 1 this week
no commentswrite comment
1 2 3 4 5
3 more votes to show rating
add to favorites
launch autoscroll
font size
0
reset
transpose
0
reset
simplify chords
display chords
guitar tuner
Autoscroll
slow
fast
+/-
esc
set tempo
stop
Help us to improve Ultimate-Guitar.com Take our survey!
×
|------------------------------------------------------------|
|------------------------------------------------------------|
|--7----4----12----11-----9-------7----4----9----11-----12---|
|--7----4----12----11-----9-------7----4----9----11-----12---|
|--5----2----10-----9-----7-------5----2----7-----9-----10---|
|------------------------------------------------------------|
   D5   B5   G5    F#5   E5       D5   B5   E5    F#5   G5


A)
       D5        B5        G5   F#5   E5
  Hoy keremos trabajar por la hermand1ad

       D5            B5          E5    F#5    G5
  siempre vamos a respetar al ke hizo nuestro hogar

|----------------------------------------------------------|
|----------------------------------------------------------|
|----------------------------------------------------------|
|--5----12----5----7----11----12----7----12----11----------|
|--5----12----5----7----11----12----7----12----11----------|
|--3----10----7----5----9-----10----5----10----9-----------|
  G5    D5   B5   A5    C#5   D5    A5   D5   C#5


B)
        G5           D5              B5        A5     C#5
  ke seria de esta ciudad si el ke amasa no amasa mas
      D5                A5             D5 - C#5
  piensa un poko mas sin ellos no seria igual

A)
  cuentale a tu papa ke ser mesero no esta mal
  invita a fumar un juay a tu mama

B)
  hacer lo ke te gusta mas te hace de verdad
  aprende a valorar y todo te resultara,

|-------------------------------------------------|
|-------------------------------------------------|
|--7---------------------7---12-------------------|
|--7---5---9---7---------7---12---9---7---5---7---|
|--5---5---9---7---X2----5---10---9---7---5---7---|
|------3---7---5------------------7---5---3---5---|
  D5  G5   B5  A5        D5  G5   B5  A5  G5  A5


C)
      D5         G5        B5           A5
  y griten hey, cuando tu amigo dice tu estas primero
D5       G5         B5           A5
  hey cuando tu refrigerador esta muy lleno
D5         G5           B5         A5            G5             A5
  hey cuando las cosas para vivir no tenga un precio seria tan bueno


B)
  hacer lo ke te gusta mas te hace de verdad
  piensa un poco mas sin ellos no seria igual
  y griten hey cuando tu


C)
  y griten hey, cuando tu amigo dice tu estas primero
  hey cuando tu refrigerador esta muy lleno
  hey cuando las cosas para vivir no tenga un precio seria tan bueno


esta cancion es mi primera colaboracion si tienen
dificultades y algunas sugerencias haganmelo saber
Suggest correction
Give kudos to tab author, rate the tab!
1 2 3 4 5
comments
print report bad tab
guest
You may want to rate the tab now too:
select rating
Wanna post a correction for this tab? Suggest correction