Oops, an error
Loading. Please wait.

15 Minutos 15 Tab

version 1
version 1

Whole song

11 views 1 this week
no commentswrite comment
1 2 3 4 5
3 more votes to show rating
add to favorites
×
Save as Personal and add changes to this tab that will be seen only by you. Learn more ›
×
You can save this tab as Personal to edit and correct it or add notes. All changes will be seen only by you. Learn more »
save as personal
new!
launch autoscroll
font size
0
reset
how to read this tab
guitar tuner
Autoscroll
slow
fast
+/-
esc
set tempo
stop
15 minutos 15 (Version Salud, Dinero y Dinero)

G#/A      x8

A D E  A  x4

A                     A D E  A
15 minutos, 15 tirado
A                                   A D E  A
tirado en el piso del baño del bar
A                              A D E  A
y me pregunto ke tiene de malo
A                                A D E  A
estar en el piso del baño del bar

D
si ya no tengo
A
  nada nada nada nada
D
si ya no tengo
E
  nada ke perder

A D E  A   x4

A                     A D E  A
15 minutos, 15 tirado
A                                   A D E  A
tirado en el piso del baño del bar
A                              A D E  A
y me pregunto ke tiene de malo
A                                A D E  A
estar en el piso del baño del bar

D
si ya no tengo
A
  nada nada nada nada
D
si ya no tengo
E
  nada ke perder

G#/A       x8

A D E  A   x4

G#/A       x4

A

OJO!:
-----

* los G#/A son slides de la forma:

E||--------------------------|-------------------------|
B||--------------------------|-------------------------|
G||--------------------------|-------------------------|
D||--6--7--7--7--6--7--7--7--|--6--7--7--7----7--7--7--|
A||--6--7--7--7--6--7--7--7--|--6--7--7--7----7--7--7--|
E||--4--5--5--5--4--5--5--5--|--4--5--5--5----5--5--5--|

E||----------------------------------|--------------------------------||
B||---9--10--10--10---9--10--10--10--|---9--10--10--10----10--10--10--||
G||----------------------------------|--------------------------------||
D||----------------------------------|--------------------------------||
A||----------------------------------|--------------------------------||
E||----------------------------------|--------------------------------||

* por lo tanto no serian 8 en la intro y al final,
serian 7 y medio..

* obviamente en la guitarra, el bajo los hace en la 4ª todo
el tiempo..

* en la parte depues de "si ya no tengo".. el bajo hace un:

G||--------------------------|
D||--------------------------|
A||--------------------------|
E||--5--0--5--0--5--0--5--0--|

pero no estoy seguro..


Observaciones:
-------------

* esto es una base, pero es re simple, por lo tanto es bastante
similar..
* es una buena canion de la buena epoca de la bandita esta
ke apesta..
Suggest correction
Give kudos to tab author, rate the tab!
1 2 3 4 5
comments
print report bad tab
guest
Wanna post a correction for this tab? Suggest correction