Oops, an error
Loading. Please wait.

Alta Velocidad Tab

17 views 1 this week
no commentswrite comment
1 2 3 4 5
3 more votes to show rating
add to favorites
×
Save as Personal and add changes to this tab that will be seen only by you. Learn more ›
×
You can save this tab as Personal to edit and correct it or add notes. All changes will be seen only by you. Learn more »
save as personal
new!
launch autoscroll
font size
0
reset
how to read this tab
guitar tuner
Autoscroll
slow
fast
+/-
esc
set tempo
stop
Intro

e|---------------------------------
B|---------------------------------
G|-------------------------7-7-7-7- (x3)
D|-7-7-7-7-5-5-5-5-4-4-4-4-7-7-7-7-
A|-7-7-7-7-5-5-5-5-4-4-4-4-5-5-5-5-
E|-5-5-5-5-3-3-3-3-2-2-2-2---------

e|-------------------------0-------
B|-------------------------0-------
G|-------------------------1-------
D|-7-7-7-7-5-5-5-5-4-4-4-4-2-------
A|-7-7-7-7-5-5-5-5-4-4-4-4-2-------
E|-5-5-5-5-3-3-3-3-2-2-2-2-0-------

e|-------------
B|-------------
G|---------7---
D|-7-7-7-7-7-7-  (x4)
A|-7-7-7-7-5-7-
E|-5-5-5-5---5-

e|-0-
B|-0-
G|-1-
D|-2-
A|-2-
E|-0-


         A                              E
Con las manos manchadas de mala reputación
           A                                E
llevas la rabia como un fuego fuera de control
                   B
tu cerebro se acelera
                 D
esa voz en tu cabeza
que te grita

   A                                   E
a ver donde están los dueños de la verdad
        A                                     E
hasta cuando con el verso de que hay que esperar
                    B
sale humo por las ruedas
                  D
tu cerebro se acelera
                  A
no vas a ninguna parte
                   B
y esa voz en tu cabeza
                   E
que no para de gritar

A
alta
 D     E
velocidad (hey! hey! hey!hey!)

e|-------------
B|-------------
G|---------7---
D|-7-7-7-7-7-7-  (x4)
A|-7-7-7-7-5-7-
E|-5-5-5-5---5-

E

   A                                  E
a ver donde están lo dueños de la verdad
        A                           E
que se bajen de una vez de su pedestal
                       B
llegó la hora de ensuciarse
                   D
se acabaron las excusas
                          A
porque estamos hasta el cuello
                     B
no nos queda mucho tiempo
                      E
¿cuando vamos a arrancar?

e|-------------------------------------------
B|-------------------------------------------
G|-9-9-----9-9-----9---7-7-6-7-6-7-7-6-7-6---  (X2)
D|-----7-7-----7-7---7---------------------7-
A|-------------------------------------------
E|-------------------------------------------

B                    D
   tu cerebro se acelera
                  A
no vas a ninguna parte
                   B
y esa voz en tu cabeza
                   E
que no para de gritar

A
alta
 D     E
velocidad

e|-------------
B|-------------
G|---------7---
D|-7-7-7-7-7-7-
A|-7-7-7-7-5-7-
E|-5-5-5-5---5-
Suggest correction
Give kudos to tab author, rate the tab!
1 2 3 4 5
comments
print report bad tab
guest
Wanna post a correction for this tab? Suggest correction