Oops, an error
Loading. Please wait.

Bailando En La Oscuridad Tab

28 views 1 this week
no commentswrite comment
1 2 3 4 5
3 more votes to show rating
add to favorites
×
Save as Personal and add changes to this tab that will be seen only by you. Learn more ›
×
You can save this tab as Personal to edit and correct it or add notes. All changes will be seen only by you. Learn more »
save as personal
new!
launch autoscroll
font size
0
reset
how to read this tab
guitar tuner
Autoscroll
slow
fast
+/-
esc
set tempo
stop
INTRO

D  G  A# (x2)

(Verso 1)

D             G           A#
Los buenos momentos duran poco tiempo
no puedes dormirte debes unirte
Las cosas buenas,las que matan las penas
                            Riff1
son invisibles casi imposibles.

Riff 1

e|------------------
B|------------------
G|------------------
D|-8-7-5-3-5-7------
A|------------------
E|------------------

F           A
Bailando en la oscuridad
C
no importa en que lugar.
F            A
Bailando en soledad
D             Riff 2
no debes pensar.

Riff 2

e|----------------------------------
B|-6-5-----------8--10-10-8-10-10-8-
G|-----7-3-5-7----------------------
D|----------------------------------
A|----------------------------------
E|----------------------------------

e|--------------------------
B|-6-5----------------------
G|-----7-3-5-7--5-7-5-7-5/2-
D|--------------------------
A|--------------------------
E|--------------------------

Riff 3 (va enganchado con el riff 2)

e|------------------------1------------
B|---3-----3------------3-----3--------
G|-2---2-0---0---3----2-----0---0---3--
D|-------------3------------------3----
A|-------------------------------------
E|-------------------------------------


Riff 3
Las palabras que quieres oir
las voces que sientes reir
solo aparecen rapidamente
solo las oye tu mente.

F-A-C
F-A-D-G#-A#

A#           C
Bailando en la oscuridad
G
en cualquier lugar.
A#          C
Bailando en soledad
     D
no debes pensar.

(intermedio)
D C B A B C D

F           A
Bailando en la oscuridad
C
la melodia es unica.
F           A
Bailando en tu soledad
D
bailando en la oscuridad.

Final
e|----------------------------------
B|-6-5-----------8--10-10-8-10-10-8-
G|-----7-3-5-7----------------------
D|----------------------------------
A|----------------------------------
E|----------------------------------

e|--------------------------
B|-6-5----------------------
G|-----7-3-5-7--5-7-5-7-5---
D|--------------------------
A|--------------------------
E|--------------------------

e|-----------------------------
B|-6-5----------5-6-8-10-------
G|-----7-3-5-7-------------2---
D|-----------------------------
A|-----------------------------
E|-----------------------------
Suggest correction
Give kudos to tab author, rate the tab!
1 2 3 4 5
comments
print report bad tab
guest
Wanna post a correction for this tab? Suggest correction