Oops, an error
Loading. Please wait.

Cielo Salvaje Tab

18 views 1 this week
no commentswrite comment
1 2 3 4 5
2 more votes to show rating
add to favorites
launch autoscroll
font size
0
reset
how to read this tab
guitar tuner
×
Best way to learn
"Cielo Salvaje"
Autoscroll
slow
fast
+/-
esc
set tempo
stop
INTRO

e--------------
B--------------
G--------------
D--------------
A--------------
E---3-2-0-0---- X9

E5
Otro día en la ciudad del odio,
otra vuelta en la perilla del mal.

RIFF 1
e-------------------
B-------------------
G-------------------
D-------------------
A-------2-0-2-0------
E-0-2-3---------3-0--

E5
Tiembla el pulso, tiembla la voz,
tiembla la tierra que se abre en dos.

RIFF1

C5
Besé tus lágrimas
A5
casi inocentes,
C5
acaricié tus miedos
B5
y los tiré en el fondo del mar.

RIFF 1 X2
INTRO X3

E5
Viaje de ida al centro de la locura,
una voz dice: ?vamos muy bien?.

RIFF 1

E5
Viejas guerras, eterna venganza,
la violencia nunca es casualidad.

RIFF 1


C5
Besé tus lágrimas
A5
asi inocentes,
C5
acaricié tus miedos
B5
y los tiré en el fondo del mar.

RIFF X4

E5
                                                 X2            X16
e----------------------------------------|-----------------|-----12-|
B----------------------------------------|-----------------|---12---|
G-------7-------7-9-9B-9B-9B-9B-7--------|-----4-5---------|--------|
D--3/9-9-9-7-9-9---------------9-9-7-9---|--5-7---5-7/9-7-7|--------|
A----------------------------------------|-----------------|--------|
E----------------------------------------|-----------------|--------|

C5
Besé tus lágrimas
A5
asi inocentes,
C5
acaricié tus miedos
B5
y los tiré en el fondo del mar.

E5
No hay reglas bajo este cielo salvaje,
suben las apuestas y hay mucho que perder.

INTRO X4  E5
Suggest correction
Give kudos to tab author, rate the tab!
1 2 3 4 5
comments
print report bad tab
guest
You may want to rate the tab now too:
select rating
Wanna post a correction for this tab? Suggest correction