Oops, an error
Loading. Please wait.

Como Maiden Tab

8 views 1 this week
no commentswrite comment
1 2 3 4 5
3 more votes to show rating
add to favorites
launch autoscroll
font size
0
reset
how to read this tab
guitar tuner
Autoscroll
slow
fast
+/-
esc
set tempo
stop
Help us to improve Ultimate-Guitar.com Take our survey!
×
A A A B
A A A D
A A A B
A A A D     E E E

D|-9----7-6-7---6-4-6-2---2/4-----
A|----------------------------5-2-

Escucho los gritos sordos
envueltos en la tierra
mal presagio en la tiniebla

D E

A|----------------------------5-2
E|-7----5-4-5---4-2-4-0---4------

Atravesando la tierra
los muertos, las tumbas dejan
y los hombres historias cuentan

            D
vienen por ti
            A
vienen por ti
E                        B
 como en una canción de Maiden
          D
almas en pena
                 A
con la gente se mezclan
E
 es la fiesta de los muertos
  G          A
que se ríen de los vivos

A A A B
A A A D
A A A B
A A A D     E E E


D|-9----7-6-7---6-4-6-2---2/4-----
A|----------------------------5-2-

Hay piratas, asesinos
ángeles que nadie quiso
expulsados del paraíso

D E

A|----------------------------5-2
E|-7----5-4-5---4-2-4-0---4------

Vestidos de fiesta
entre gritos y ahullidos
confundiendo los sentidos

Vienen por ti
Vienen por ti
como en una canción de Maiden
Almas en pena
con la gente se mezclan
es la fiesta de los muertos
que se rien de los vivos

B B B C#                B B B E                      (x2)
e|-------------------------------------------------
B|------9--9----------9-------12-12-12-12-12-10----
G|------------11-9-11---------------------------12-


G|-9--------9---------11-------9-------
D|---11---11--11----11--11---11-11--11-

B B B C#
        almas en pena! (vienen por mi)
B B B E
        con la gente se mezclan! (vienen por ti)
B B B C#                           A
        almas en pena! (vienen por mi)
                        B             C#
con la gente se mezclan! (vienen por ti)
Suggest correction
Give kudos to tab author, rate the tab!
1 2 3 4 5
comments
print report bad tab
guest
You may want to rate the tab now too:
select rating
Wanna post a correction for this tab? Suggest correction