Oops, an error
Loading. Please wait.

Déjate Llevar Tab

24 views 1 this week
no commentswrite comment
1 2 3 4 5
3 more votes to show rating
add to favorites
launch autoscroll
font size
0
reset
how to read this tab
guitar tuner
×
Best way to learn
"Déjate Llevar"
Autoscroll
slow
fast
+/-
esc
set tempo
stop
Intro
e|---------------------------------------------
B|---------------------------------------------
G|-9--9--9-7--6--6--6--7--7--7--7-5--7--7--7-5-
D|-7--7--7-7--7--7--7--7--5--5--5-5--5--5--5-5- x2
A|---------------------------------------------
E|---------------------------------------------

e|---------------------------
B|---------------------------
G|-4--4--4-2--1--1--1--2--4--
D|-2--2--2-2--2--2--2--------
A|---------------------------
E|---------------------------

A
no estaba nada mal    D
perdidos entre la gente
A                             E
vos querias bailar y yo solo verte

A
LA mejor medicina    D
un beso justo a tiempo
           F#m   E          A
y que el tiempo cure las heridas

e|---------------------------------------------
B|---------------------------------------------
G|-9--9--9-7--6--6--6--7--7--7--7-5--7--7--7-5-
D|-7--7--7-7--7--7--7--7--5--5--5-5--5--5--5-5- x2
A|---------------------------------------------
E|---------------------------------------------

no estaba nada mal
se puso cada vez mejor
la apretaste en tu mano como la suerte del campeón

todas la recetas
terminaron en la basura
como tantas otras cosas importantes

     A
Dejate llevar
          D
hacia ningún lugar
            A
perdido en la corriente
 E
como gota de mar
  A
arena del desierto
   D
volando en el viento
 F#m E     A
dejate llevar

           A               D                 A              E
e|------------------------------------------------------------------
B|------------------------------------------------------------------
G|------------------------------------------------------------------
D|---------2--0------------4--2--0-----------2--0-------------------
A|-4-2-0---------4----2-0------------4-2-0---------4--2--0--2---4-5-
E|------------------------------------------------------------------

           A     A7        D            F#m      E        A
e|-----------------------------------------------------------
B|-----------------------------------------------------------
G|-----------------------------------------------------------
D|---------2--0------------4--6--7---------------------------
A|-4-2-0---------4----2-0-----------4-2--4-------2-2------0--
E|----------------------------------------------------4-4----

no estaba nada mal
un poco de puro placer
enredados en la cama, gracias por volver

LA mejor medicina
un beso justo a tiempo
y que el tiempo cure las heridas

Dejate llevar
hacia ningún lugar
perdido en la corriente
como gota de mar
arena del desierto
volando en el viento
dejate llevar

como arena del desierto
volando en el viento
dejate llevar.

e|---------------------------------------------
B|---------------------------------------------
G|-9--9--9-7--6--6--6--7--7--7--7-5--7--7--7-5-
D|-7--7--7-7--7--7--7--7--5--5--5-5--5--5--5-5- x2
A|---------------------------------------------
E|---------------------------------------------

e|---------------------------
B|---------------------------
G|-4--4--4-2--1--1--1--2--4--
D|-2--2--2-2--2--2--2--------
A|---------------------------
E|---------------------------
Suggest correction
Give kudos to tab author, rate the tab!
1 2 3 4 5
comments
print report bad tab
guest
You may want to rate the tab now too:
select rating
Wanna post a correction for this tab? Suggest correction